Табулатура System Of A Down | Toxicity гитара табулатуры уроки тексты песен System Of A Down текст lyrics песня аккорды песни ноты нота электрогитара струна  
   А Б В Г Д Е Ж З И К Л М Н О П Р С Т У Ф Х Ч Ш Ы Э Ю Я       Разные песни
1-9 A B C D E F G H I J K L M N O P Q R S T U V W Y Z      Все исполнители in english

    



группа System Of A Down, Табулатура песни Toxicity

Группа: System Of A Down - другие аккорды (73),   диски (8),   фотографии (22)
Табулатура песни: Toxicity
Просмотров: 1893
Подобрал: Зиц (Zouth@zmail.ru)




    
12: TOXICITY
========================================================================================

Intro/Verse1
|-----5----5----5----5----5----5------8----8----8----8----8----8------|
|---3----3----3----3----3----3------6----6----6----6----6----6--------|
|---------------------------------------------------------------------|
|---------------------------------------------------------------------|   
|---------------------------------------------------------------------|  
|---------------------------------------------------------------------|  
|----5----5----5---6----6--5---5---------8---10---10--8---8---6---------|
|--3----3----3--------3------3---------6---6----6-------6---6---6-------|
|-----------------------------------------------------------------------|
|-----------------------------------------------------------------------|
|-----------------------------------------------------------------------|
|-----------------------------------------------------------------------|

Chorus
|-------------------------------------------|
|-------------------------------------------|
|-------------------------------------------|
|--0----3-2-0-0-0-0--------3-3-2-2----------|
|--0----3-2-0-0-0-0--------1-1-0-0----------|
|--0----3-2-0-0-0-0-------------------------|
      PM-----------
|---------------------------------------------------------------|
|---------------------------------------------------------------|
|---------------------------------------------------------------|
|-----------------------------------------------------3-3-2-2---|
|---3-2-0-0-0-0-3-2-0-0-0-0-3-2-0-0-0-0-3-2-0-0-0-0---1-1-0-0---|

Продолжаем грести бабос на ботах в Telegram.
Только в этот раз есть вариант автоматизировать это дело, привлекая рефералов. Вы можете заработать если »

|---3-2-0-0-0-0-3-2-0-0-0-0-3-2-0-0-0-0-3-2-0-0-0-0-------------| PM----------------------------------------------- Interlude |---------------------------------------------------------------------| |---------------------------------------------------------------------| |---------------------------------------------------------------------| |---------------------------------------------------------------------| |---------------------------------------------------------------------| |-------12-12-12-12-12-12-15-12-12-14~~~~~~~~-------------------------| Vibrato on the last note |--------------------------------------------| |--------------------------------------------| |--------------------------------------------| |--------------------------------------------| |--0-0-0-0-0-0-3-2-0-0-0-0-------------------| |--0-0-0-0-0-0-3-2-0-0-0-0-------------------| PM------------------------ |---------------------------------------------------------------------| |---------------------------------------------------------------------| |---------------------------------------------------------------------| |--0--0-0-0-0--3-0-0--------------------------------------------------| |--0--0-0-0-0--3-0-0--------------------------------------------------| |--0--0-0-0-0--3-0-0---2----------------------------------------------| PM------------------

www.soad.dax.ru







О сайтеАккордыХит-парадПоискУроки ФорумыИщу песню
ПрограммыСвежачок-сПодпискаСтатьи
Яндекс.Метрика