Табулатура Мастер | Мастер  (2) гитара табулатуры уроки тексты песен Мастер текст lyrics песня аккорды песни ноты нота электрогитара струна  
   А Б В Г Д Е Ж З И К Л М Н О П Р С Т У Ф Х Ч Ш Ы Э Ю Я       Разные песни
1-9 A B C D E F G H I J K L M N O P Q R S T U V W Y Z      Все исполнители

    



группа Мастер, Табулатура песни Мастер (2)

Продолжаем грести бабос на ботах в Telegram.
Только в этот раз есть вариант автоматизировать это дело, привлекая рефералов. Вы можете заработать если »

Группа: Мастер - другие аккорды (23),   о группе (2 статей),   диски (9),   фотографии (4)
Табулатура песни: Мастер (2)
Просмотров: 1276
Подобрал: -=GrouS=- (vnsiz@a-teleport.com)




    
Очень важно, чтобы вы прочитали все от начала до
Конца !!!!!!!!!!!!!!!!!!!!!!!!!!!!!!!!!!!!!!!!!!!!!!!!!!!!!!!!!! 
Вступление:
Вступление играется очень быстро
E ----------------------------------------------------------------
H ----------------------------------------------------------------
G ----------------------------------------------------------------
D ----------------------------------------------------------------
A ----------------------------------------------------------------
E -0-0-0-0-0-0-0-0-0- -10-9-10-9-10-9- -0-0-0-0-0-0-0-
E ----------------------------------------------------------------
H ----------------------------------------------------------------
G ----------------------------------------------------------------
D ----------------------------------------------------------------
A -----------------9---------------------------------------------
E 0- -10-9-10-9------------------------------------------------
Четыре раза играем это вступление ,а потом играем
Тоже самое только еще сильнее , тоже чтыре раза.
Потом  медленно
1) 
E ----------------------------------------------------------------
H ----------------------------------------------------------------
G ----------------------------------------------------------------
D ----------------------------------------------------------------
A -----3--------3----------3-------------------------------------
E -1--------1----------1-----------------------------------------
Теперь тоже быстро
E ----------------------------------------------------------------
H ----------------------------------------------------------------
G ----------------------------------------------------------------
D ----------------------------------------------------------------
A------------3-2-------------------------------------------------
E 1-1-1-1-------------------------------------------------------
Играем это долго вобщем купите диск или кассету или
Возьмите укого нибуть ,а в крайнем случае скачайте с
Инета и прослушайте песню Мастер и пудет намного 
Легче подобрать с помощью моей подборки эту песню
Ну  чтош поехали дальше . Дальше играем туже самую
Мелодию ,что мы играли во вступлении я вам припом-
Ню:
E ----------------------------------------------------------------
H ----------------------------------------------------------------
G ----------------------------------------------------------------
D ----------------------------------------------------------------
A ----------------------------------------------------------------
E -0-0-0-0-0-0-0-0-0- -10-9-10-9-10-9- -0-0-0-0-0-0-0-
E ----------------------------------------------------------------
H ----------------------------------------------------------------
G ----------------------------------------------------------------
D ----------------------------------------------------------------
A -----------------9---------------------------------------------
E 0- -10-9-10-9------------------------------------------------
Ну теперь как всегда припев  ,знаете слова песни я 
плохо знаю так , что не буду их писать только мело-
дию:
2)
E ----------------------------------------------------------------
H ----------------------------------------------------------------
G ----------------------------------------------------------------
D ----------------------------------------------------------------
A ----4-------4--------4--------4--------------7-------7------7
E -2------2-------2-------2----------------5-------5-------5---
3)
E ----------------------------------------------------------------

Продолжаем грести бабос на ботах в Telegram.
Только в этот раз есть вариант автоматизировать это дело, привлекая рефералов. Вы можете заработать если »

H ---------------------------------------------------------------- G ---------------------------------------------------------------- D ---------------------------------------------------------------- A ----7-------6--------6--------6----------6---------5-------5 E -5------4-------4-------4-----------4---------3--------3---- 4) E ---------------------------------------------------------------- H ---------------------------------------------------------------- G ---------------------------------------------------------------- D ---------------------------------------------------------------- A ----5-------5--------4--------4----------4--------4---------- E -3------3-------2-------2-----------2---------2-------------- E ---------------------------------------------------------------- H ---------------------------------------------------------------- G ---------------------------------------------------------------- D ---------6----------5-----------4------------------------------ A .7-----------6----------5------------------------------------- E ----------------------------------------------------------------- Это играем долго ,если вы слушаете эту песню вы Услыте когда она кончается. После конца этой мелодии будет одна мелодия ,но Я ее не подобрал , уж больно она запутанная. Потом мы снова играем мелодию которая во Вступлении этой песни, вы ее наверно уже выучили Потомучто она здесь поподается больше. Вот она E ---------------------------------------------------------------- H ---------------------------------------------------------------- G ---------------------------------------------------------------- D ---------------------------------------------------------------- A ---------------------------------------------------------------- E -0-0-0-0-0-0-0-0-0- -10-9-10-9-10-9- -0-0-0-0-0-0-0- E ---------------------------------------------------------------- H ---------------------------------------------------------------- G ---------------------------------------------------------------- D ---------------------------------------------------------------- A -----------------9--------------------------------------------- E 0- -10-9-10-9------------------------------------------------ И все я дальше не подбирал хотя можно было бы и Подобрать ее до конца но было в падлу! Ах, да помните в самом начале я писал : Очень важно, чтобы вы прочитали все от начала до Конца !!!!!!!!!!!!!!!!!!!!!!!!!!!!!!!!!!!!!!!!!!!!!!!!!!!!!!!!!! Так вот дело в том , что над некоторой табулатурой Стоят цифры например: 1) E ---------------------------------------------------------------- H ---------------------------------------------------------------- G ---------------------------------------------------------------- D ---------------------------------------------------------------- A -----3--------3----------3------------------------------------- E -1--------1----------1----------------------------------------- Это значит , что эти положения надо играть КВИНТАМИ!!!!!! Я хотел бы добавить,что на этом сайте я видил чейто подбор Той же самой песни и пытался сыграть этим(чужим) подбором ,но Нечего не вышло я пробовал и так и сяк но не выходит ни как, А это была моя любимая песня из груупы МАСТЕР и тогда я решил Ее сам подобрать(так и появился мой собственный подбор) да и еще Эту песню я подбрал на своей акустической гитарке. АВТОР ПОДБОРА НОВИКОВ.А.А.

искать в аптеке
список лекарств






О сайтеАккордыХит-парадПоискУроки ФорумыИщу песню
ПрограммыСвежачок-сПодпискаСтатьи
Яндекс.Метрика