Табулатура Metallica | Unnamed Feeling гитара табулатуры уроки тексты песен Metallica текст lyrics песня аккорды песни ноты нота электрогитара струна  
   А Б В Г Д Е Ж З И К Л М Н О П Р С Т У Ф Х Ч Ш Ы Э Ю Я       Разные песни
1-9 A B C D E F G H I J K L M N O P Q R S T U V W Y Z      Все исполнители in english

    



группа Metallica, Табулатура песни Unnamed Feeling

Работа в Европе для граждан РФ, Украины, СНГ

  • минимальная зарплата $500.
  • виза и контракт на полгода, возможно продление
  • проживание оплачивает работодатель
  • нужен только загранпаспорт
  • оформление 190 €
  • данное предложение - отличная возможность эмигрировать в Европу и закрепиться здесь навсегда.

  • Мы свяжемся с Вами по WhatsApp или Viber и ответим на любые вопросы.
    на нашем сайте можно почитать подробнее »

    Группа: Metallica - другие аккорды (225),   о группе (32 статей),   диски (11),   фотографии (49)
    Табулатура песни: Unnamed Feeling
    Просмотров: 1513
    Прислал: Dugushev Azamat (dazamat_be@yahoo.com)




        
    tabbed by Tero Saikkonen from Finland!!!
    tsslayer@luukku.com
    
    Guitars Dropped-A# tuning (Strings on C) 
    
    6=A#3=D#
    5=F 2=G
    4=A#1=C
    
    INTRO
    
    Riff A
     /distorted/
    |------------------------| -2-
    |------------------------|  T
    |------------------------|  I
    |-2--------2----2-2-2----|  M
    |-2--------2----2-2-2----|  E
    |-2--------2----2-2-2----|  S
    
    (GTR I plays Riff A and GTR II plays this riff)
     /acoustic/
    |------------------------------------------------------------| -5-
    |------------------------------------------------------------|  T
    |------------------------------------------------------------|  I
    |-----2--2----2-/----7--7----7-----2--2----2-----5--5----5--|  M
    |---2-------2---/--5-------5-----2-------2-----5-------5----|  E
    |-2-------------/5-------------2-------------5--------------|  S
    
     /distorted/
    |-------------| |------------------------------|5times
    |-------------|o|------------------------------|o|
    |-------------| |------------------------------| |
    |-5-----4-----| |-9----------------5-----4-----| |
    |-3-----2-----|o|-7----------------3-----2-----|o|
    |-------------| |(2)---------------------------| |
    
    |-------------|8|-------------|-------------|4|-------------|
    |-------------|T|-------------|-------------|T|-------------|
    |-------------|I|-------------|-------------|I|-------------|
    |--------__---|M|-5-----4-----|--------__---|M|-5-----4-----|
    |-2--2--4__3--|E|-3-----2-----|-2--2--4__3--|E|-3-----2-----|
    |-2--2--4--3--|S|-------------|-2--2--4--3--|S|-------------|
    
    Riff E
    |------------------------------------------------|2|-------------|
    |------------------------------------------------|T|-------------|
    |------------------------------------------------|I|-------------|
    |--------------------__---------------------__---|M|-5-----4-----|
    |-2--2-----2--2-----4__3-----2-----2--2----4__3--|E|-3-----2-----|
    |-2--2-----2--2-----4--3-----2-----2--2----4--3--|S|-------------|
    
    VERSE ("Been here before couldn?t say i liked it...")
    | |------------------------------------------------|2|-------------| |
    |o|------------------------------------------------|T|-------------|o|
    | |------------------------------------------------|I|-------------| |
    | |--------------------__---------------------__---|M|-5-----4-----| |
    |o|-2--2-----2--2-----4__3-----2-----2--2----4__3--|E|-3-----2-----|o|
    | |-2--2-----2--2-----4--3-----2-----2--2----4--3--|S|-------------| |
    
    |------------------------------------------------|4|-------------|
    |------------------------------------------------|T|-------------|
    |------------------------------------------------|I|-------------|
    |--------------------__---------------------__---|M|-5-----4-----|
    |-2--2-----2--2-----4__3-----2-----2--2----4__3--|E|-3-----2-----|
    |-2--2-----2--2-----4--3-----2-----2--2----4--3--|S|-------------|
    
    |-------------------------|7|-------------|
    |-------------------------|T|-------------|
    |-------------------------|I|-------------|
    |--------__----------__---|M|-5-----4-----|
    |-2--2--4__3--2--2--4__3--|E|-3-----2-----|
    |-2--2--4--3--2--2--4--3--|S|-------------|
    
    |------------------------------------------------|2|-------------|
    |------------------------------------------------|T|-------------|
    |------------------------------------------------|I|-------------|
    |--------------------__---------------------__---|M|-5-----4-----|
    |-2--2-----2--2-----4__3-----2-----2--2----4__3--|E|-3-----2-----|
    |-2--2-----2--2-----4--3-----2-----2--2----4--3--|S|-------------|
    
    CHORUS ("Then the unnamed feeling...")
     /acoustic/
    |-------------------------------------------------------------------------
    |-------------------------------------------------------------------------
    |-----------------------------------------------------------7----7--7-9-7-
    |-2----2--2---2-7----7--7---7-5----5--5----5-5----4----2----7--7----------
    |-2--2------2---5--5------5---5--5-------5---3----2----0----5-------------
    |-2------------(0)------------5-------------------------------------------
    ----------------------------------------------------------|
    ----------------------------------------------------------|
    ----------------------------------------------------------|
    -2----2--2---2-7----7--7---7-5----5--5----5-7----7--7---7-|
    -2--2------2---5--5------5---5--5-------5---7--7------7---|
    -2------------(0)------------5--------------7-------------|
    
     /distorted/
    |-------------------------|4|-------------|
    |-------------------------|T|-------------|
    |-------------------------|I|-------------|
    |--------__----------__---|M|-5-----4-----|
    |-2--2--4__3--2--2--4__3--|E|-3-----2-----|
    |-2--2--4--3--2--2--4--3--|S|-------------|
    |-------------------------|2|-------------|
    |-------------------------|T|-------------|
    |-------------------------|I|-------------|
    |--------__----------__---|M|-5-----4-----|
    |-2--2--4__3--2--2--4__3--|E|-3-----2-----|
    |-2--2--4--3--2--2--4--3--|S|-------------|
    
    VERSE ("I?m frantic in your soothing arms...")
    | |------------------------------------------------|2|-------------| |
    |o|------------------------------------------------|T|-------------|o|
    | |------------------------------------------------|I|-------------| |
    | |--------------------__---------------------__---|M|-5-----4-----| |
    |o|-2--2-----2--2-----4__3-----2-----2--2----4__3--|E|-3-----2-----|o|
    | |-2--2-----2--2-----4--3-----2-----2--2----4--3--|S|-------------| |
    
    |------------------------------------------------|4|-------------|
    |------------------------------------------------|T|-------------|
    |------------------------------------------------|I|-------------|
    |--------------------__---------------------__---|M|-5-----4-----|
    |-2--2-----2--2-----4__3-----2-----2--2----4__3--|E|-3-----2-----|
    |-2--2-----2--2-----4--3-----2-----2--2----4--3--|S|-------------|
    
    |-------------------------|7|-------------|
    |-------------------------|T|-------------|
    |-------------------------|I|-------------|
    |--------__----------__---|M|-5-----4-----|
    |-2--2--4__3--2--2--4__3--|E|-3-----2-----|
    |-2--2--4--3--2--2--4--3--|S|-------------|
    |------------------------------------------------|2|-------------|
    |------------------------------------------------|T|-------------|
    |------------------------------------------------|I|-------------|
    |--------------------__---------------------__---|M|-5-----4-----|
    |-2--2-----2--2-----4__3-----2-----2--2----4__3--|E|-3-----2-----|
    |-2--2-----2--2-----4--3-----2-----2--2----4--3--|S|-------------|
    
    CHORUS ("Then the unnamed feeling...")
     /acoustic/
    |-------------------------------------------------------------------------
    |-------------------------------------------------------------------------
    |-----------------------------------------------------------7----7--7-9-7-
    |-2----2--2---2-7----7--7---7-5----5--5----5-5----4----2----7--7----------
    |-2--2------2---5--5------5---5--5-------5---3----2----0----5-------------
    |-2------------(0)------------5-------------------------------------------
    -------------------------------------------------------------------------|
    -------------------------------------------------------------------------|
    -------------------------------------------------------------------------|
    -2----2--2---2-7----7--7---7-5----5--5----5-4----4--4---4-5----5--5----5-|
    -2--2------2---5--5------5---5--5-------5---4--4------4---5--5-------5---|
    -2------------(0)------------5--------------4-------------5--------------|
    
    |-------------------------------------------------------------------------
    |-------------------------------------------------------------------------
    |-----------------------------------------------------------7----7--7-9-7-
    |-2----2--2---2-7----7--7---7-5----5--5----5-5----4----2----7--7----------
    |-2--2------2---5--5------5---5--5-------5---3----2----0----5-------------
    |-2------------(0)------------5-------------------------------------------
    ---------------------------------------------------------------------------------------|
    ---------------------------------------------------------------------------------------|
    ---------------------------------------------------------------------------------------|
    -2----2--2---2-7----7--7---7-5----5--5----5-4----4--4---4-5----5--5----5-7----7--7---7-|
    -2--2------2---5--5------5---5--5-------5---4--4------4---5--5-------5---7--7------7---|
    -2------------(0)------------5--------------4-------------5--------------7-------------|
    
     /distorted/
    |-------------------------------------------------------------------------------------------
    |-------------------------------------------------------------------------------------------
    
    Узнай ВСЕ о своем друге в ВК или FB
    |------------------------------------------------------------------------------------------- |------------------------------------------------------------------------------------------- |-0-2--2-2-0-2-----2--2-0-------0----0----0-5--5-5-0-5-------3----2----0----0--0---0--0----- |-0-2--2-2-0-2-----2--2-0-------0----0----0-5--5-5-0-5-------2----2----2----0--0---0--0----- ------------------------------------------------------------------------------------ ------------------------------------------------------------------------------------ ------------------------------------------------------------------------------------ ------------------------------------------------------------------------------------ -0-2--2-2-0-2-----2--2-0-------0----0----0-5--5-5-0-5---5--5--4--4444-4--4444-4--44- -0-2--2-2-0-2-----2--2-0-------0----0----0-5--5-5-0-5---5--5--4--4444-4--4444-4--44- -----------------------------------------| -----------------------------------------| -----------------------------------------| -----------------------------------------| -5--5555-5--5555-5-55-7-7777-7-7777-7-77-| -5--5555-5--5555-5-55-7-7777-7-7777-7-77-| GTR I |------------------------------------------------| |------------------------------------------------| |------------------------------------------------| |--------------------__---------------------__---| |-2--2-----2--2-----4__3-----2-----2--2----4__3--| -4- |-2--2-----2--2-----4--3-----2-----2--2----4--3--| T | | I |GTR II | M |------------------------------------------------| E |------------------------------------------------| S |-------------------15~~~~-----------------------| |------------------------------------------------| |------------------------------------------------| |------------------------------------------------| Riff E2 |------------------------------------------------| -2- |------------------------------------------------| T |------------------------------------------------| I |--------------------__---------------------__---| M |-2--2-----2--2-----4__3--2--2-----2--2----4__3--| E |-2--2-----2--2-----4--3--2--2-----2--2----4--3--| S ("Get the fuck out of here...") (GTR I plays Riff E2 and GTR II plays this riff) /acoustic/ (GTR I plays only 1st-4th times) |------------------------------------------------------------| -5- |------------------------------------------------------------| T |------------------------------------------------------------| I |-----2--2----2-/----7--7----7-----2--2----2-----5--5----5--| M |---2-------2---/--5-------5-----2-------2-----5-------5----| E |-2-------------/5-------------2-------------5--------------| S |-------------| |-------------| |-------------| |-5-----4-----| |-3-----2-----| |-------------| |--------------------------------| -3- |--------------------------------| T |--------------------------------| I |----------------5-------4-------| M |-5-2--2---0-2-0-3---2-2-2---2-2-| E |-5-2--2---0-2-0-----2-2-----2-2-| S |-----------------------------------| |-----------------------------------| |-----------------------------------| |---5---4-------------5---4---------| |-2-3-2-2-2-2-------2-3-2-2-2-2-----| |-2---2---2-2-------2---2---2-2-----| |-------------| |-------------| |-------------| |-5-----4-----| |-3-----2-----| |-------------| |--------------------------------|2| |-------------------------------| |-------------| |--------------------------------|T|o|-------------------------------|o|-------------| |--------------------------------|I| |-------------------------------| |-------------| |----------------5-------4-------|M| |-------------------------------| |-5-----4-----| |-5-2--2---0-2---3-------2-------|E|o|-5-2--2---0-2---5-2--2---0-2---|o|-3-----2-----| |-5-2--2---0-2-------------------|S| |-5-2--2---0-2---5-2--2---0-2---| |-------------| |-------------------------------|4|-------------------------------------------| |-------------------------------|T|-------------------------------------------| |-------------------------------|I|-------------------------------------------| |-------------------------------|M|-------------------------------------------| |-----------__-------------__---|E|-----------__----__-------------__----__---| |-2-2-2-2--4--3--2-2-2-2--4--3--|S|-2-2-2-2--4--3--4--3--2-2-2-2--4--3--4--3--| |----------------------------------------------------------------------------------| |----------------------------------------------------------------------------------| |----------------------------------------------------------------------------------| |-----------------------------------------__----------__----------__----------__---| |-----------__----__----__----___--2--2--4__3--2--2--4__3--2--2--4__3--2--2--4__3--| |-2-2-2-2--4--3--4--3--4--3--4--3--2--2--4--3--2--2--4--3--2--2--4--3--2--2--4--3--| CHORUS |------------------------------------------------------------------------------------------- |------------------------------------------------------------------------------------------- |------------------------------------------------------------------------------------------- |------------------------------------------------------------------------------------------- |-0-2--2-2-0-2-----2--2-0-------0----0----0-5--5-5-0-5-------3----2----0----0--0---0--0----- |-0-2--2-2-0-2-----2--2-0-------0----0----0-5--5-5-0-5-------2----2----2----0--0---0--0----- ------------------------------------------------------------------------------------- ------------------------------------------------------------------------------------- ------------------------------------------------------------------------------------- ------------------------------------------------------------------------------------- -0-2--2-2-0-2-----2--2-0-------0----0----0-5--5-5-0-5---5--5--4---4-4-4---4-4-4---4-- -0-2--2-2-0-2-----2--2-0-------0----0----0-5--5-5-0-5---5--5--4---4-4-4---4-4-4---4-- ------------------------| ------------------------| ------------------------| ------------------------| -5-----5----__-__-------| -5-----5-0-5--7--5--0---| |------------------------------------------------------------------------------------------- |------------------------------------------------------------------------------------------- |------------------------------------------------------------------------------------------- |------------------------------------------------------------------------------------------- |-0-2--2-2-0-2-----2--2-0-------0----0----0-5--5-5-0-5-------3----2----0----0--0---0--0----- |-0-2--2-2-0-2-----2--2-0-------0----0----0-5--5-5-0-5-------2----2----2----0--0---0--0----- ------------------------------------------------------------------------------------ ------------------------------------------------------------------------------------ ------------------------------------------------------------------------------------ ------------------------------------------------------------------------------------ -0-2--2-2-0-2-----2--2-0-------0----0----0-5--5-5-0-5---5--5--4--4444-4--4444-4--44- -0-2--2-2-0-2-----2--2-0-------0----0----0-5--5-5-0-5---5--5--4--4444-4--4444-4--44- -----------------------------------------| -----------------------------------------| -----------------------------------------| -----------------------------------------| -5--5555-5--5555-5-55-7-7777-7-7777-7-77-| -5--5555-5--5555-5-55-7-7777-7-7777-7-77-| /acoustic/ |------------------------------------------------------------------------- |------------------------------------------------------------------------- |-----------------------------------------------------------7----7--7-9-7- |-2----2--2---2-7----7--7---7-5----5--5----5-5----4----2----7--7---------- |-2--2------2---5--5------5---5--5-------5---3----2----0----5------------- |-2------------(0)------------5------------------------------------------- ----------------------------------------------------------| ----------------------------------------------------------| ----------------------------------------------------------| -2----2--2---2-7----7--7---7-5----5--5----5-7----7--7---7-| -2--2------2---5--5------5---5--5-------5---7--7------7---| -2------------(0)------------5--------------7-------------| |------------| |------------| tabbed by: |------------| THE T E R O S A I K K O N E N |-2---(2)----| END contact me to: |-2---(2)----| t s s l a y e r @ l u u k k u . c o m |-2---(2)----|

    www.fretplay.com
    искать в аптеке
    список лекарств






    О сайтеАккордыХит-парадПоискУроки ФорумыИщу песню
    ПрограммыСвежачок-сПодпискаСтатьи
    Яндекс.Метрика