Табулатура Nightwish | Wish I Had An Angel гитара табулатуры уроки тексты песен Nightwish текст lyrics песня аккорды песни ноты нота электрогитара струна  
   А Б В Г Д Е Ж З И К Л М Н О П Р С Т У Ф Х Ч Ш Ы Э Ю Я       Разные песни
1-9 A B C D E F G H I J K L M N O P Q R S T U V W Y Z      Все исполнители in english

    



группа Nightwish, Табулатура песни Wish I Had An Angel

Работа в Европе для граждан РФ, Украины, СНГ

  • минимальная зарплата $500.
  • виза и контракт на полгода, возможно продление
  • проживание оплачивает работодатель
  • нужен только загранпаспорт
  • оформление 190 €
  • данное предложение - отличная возможность эмигрировать в Европу и закрепиться здесь навсегда.

  • Мы свяжемся с Вами по WhatsApp или Viber и ответим на любые вопросы.
    на нашем сайте можно почитать подробнее »

    Группа: Nightwish - другие аккорды (414),   о группе (12 статей),   диски (6),   фотографии (25)
    Табулатура песни: Wish I Had An Angel
    Просмотров: 1931
    Прислал: Forever (forever@akkords.ru)




        
    
                                                                               
    E||------|------|------|------|------|------|------|----------------------|
    B||------|------|------|------|------|------|------|----------------------|
    G||------|------|------|------|------|------|------|----------------------|
    D||------|------|------|------|------|------|------|----------------------|
    A||------|------|------|------|------|------|------|--2----2----2------0--|
    D||------|------|------|------|------|------|------|--2----2----2------0--|
    
                                                                              
    ------------------------|----------------------|-------------------------|
    ------------------------|----------------------|-------------------------|
    ------------------------|----------------------|-------------------------|
    ------------------------|----------------------|-------------------------|
    --0--2--2----0--2--2----|--2----2----2------0--|--0--2--2----2--2--2--2--|
    --0--2--2----0--2--2----|--2----2----2------0--|--0--2--2----2--2--2--2--|
    
                                                                                
    ----------------------|-------------------------|--------------------------|
    ----------------------|-------------------------|--------------------------|
    ----------------------|-------------------------|--------------------------|
    ----------------------|-------------------------|--------------------------|
    --2----2----2------0--|--0--2--2----0--2--2--2--|--2--2--7--2--2--7--2--2--|
    --2----2----2------0--|--0--2--2----0--2--2--2--|--2--2--2--2--2--2--2--2--|
    
                                                                                
    --------------------------|------|------|------|------|------|------|------|
    --------------------------|------|------|------|------|------|------|------|
    --------------------------|------|------|------|------|------|------|------|
    --------------------------|------|------|------|------|------|------|------|
    --2--3--3--5--5--4--4--0--|------|------|------|------|------|------|------|
    --2--3--3--5--5--4--4--0--|------|------|------|------|------|------|------|
    
                                                                                    
    --30-29-28-27-26-25-24-23-22-21-20-19-18-17-16-15-14-13-12-11-10-9-8-7-6-5-4-3-2
    --------------------------------------------------------------------------------
    --------------------------------------------------------------------------------
    --------------------------------------------------------------------------------
    --------------------------------------------------------------------------------
    --------------------------------------------------------------------------------
    
                                                                                    
    -------------------------|--------------------------|--------------------------|
    -------------------------|--------------------------|--------------------------|
    -------------------------|--------------------------|--------------------------|
    -------------------------|--------------------------|--------------------------|
    --2----2--2--2--2--2--2--|--2--2--2--2--2--3--3--0--|--2--2--2--2--2--2--2--2--|
    --2----2--2--2--2--2--2--|--2--2--2--2--2--3--3--0--|--2--2--2--2--2--2--2--2--|
    
                                                          
    --------------------------|--------------------------|
    --------------------------|--------------------------|
    --------------------------|--------------------------|
    --------------------------|--------------------------|
    --2--2--2--2--2--2--2--2--|--2--2--2--2--2--2--2--2--|
    --2--2--2--2--2--2--2--2--|--2--2--2--2--2--2--2--2--|
    
                                                                       
    --------------------------|-------------------|-------------------|
    --------------------------|-------------------|-------------------|
    --------------------------|-------------------|--7----------------|
    --------------------------|--5----------------|--7----------------|
    --2--2--2--2--2--2--2--2--|--5----------------|--5----------------|
    --2--2--2--2--2--2--2--2--|--5----------------|-------------------|
    
                                                                     
    -------------------|-------------------|------------------------|
    -------------------|-------------------|------------------------|
    --5----------------|-------------------|------------------------|
    --5----------------|----------4--------|------------------------|
    --3----------------|----------4--------|--0h-2----0h-2----0h-2--|
    -------------------|----------4--------|--0h-2----0h-2----0h-2--|
    
                                                                     
    ------------------------|-------------------|-------------------|
    ------------------------|-------------------|-------------------|
    ------------------------|--5----------------|-------------------|
    ------------------------|--5----------------|----------4--------|
    ----0h-2----2--2--2--2--|--3----------------|----------4--------|
    ----0h-2----2--2--2--2--|-------------------|----------4--------|
    
                                                                       
    -------------------|--------------------|-------------------------|
    -------------------|--------------------|-------------------------|
    -------------------|--7----7------------|-------------------------|
    --5----------------|--7----7------------|-------------------------|
    --5----------------|--5----5------------|--2----2--2--2--2--2--2--|
    --5----------------|--------------------|--2----2--2--2--2--2--2--|
    
                                                          
    --------------------------|--------------------------|
    --------------------------|--------------------------|
    --------------------------|--------------------------|
    --------------------------|--------------------------|
    --2--2--2--2--2--2--2--2--|--2--2--2--2--2--2--2--2--|
    --2--2--2--2--2--2--2--2--|--2--2--2--2--2--2--2--2--|
    
                                                          
    --------------------------|--------------------------|
    --------------------------|--------------------------|
    --------------------------|--------------------------|
    --------------------------|--5--5--5--5--5--5--5--5--|
    --2--2--2--2--2--2--2--2--|--3--3--3--3--3--3--3--3--|
    --2--2--2--2--2--2--2--2--|--------------------------|
    
                                                                       
    --------------------------|-------------------|-------------------|
    --------------------------|-------------------|-------------------|
    --------------------------|-------------------|--7----------------|
    --5--5--5--5--5--5--5--5--|--0----------------|--7----------------|
    --3--3--3--3--3--3--3--3--|--0----------------|--5----------------|
    --------------------------|--0----------------|-------------------|
    
                                                          
    --------------------------|--------------------------|
    --------------------------|--------------------------|
    --------------------------|--------------------------|
    --------------------------|--------------------------|
    --2--2--2--2--2--2--2--2--|--2--2--2--2--2--2--2--2--|
    --2--2--2--2--2--2--2--2--|--2--2--2--2--2--2--2--2--|
    
                                                          
    --------------------------|--------------------------|
    --------------------------|--------------------------|
    --------------------------|--------------------------|
    --------------------------|--------------------------|
    --4--4--4--4--4--4--4--4--|--5--5--5--5--5--5--5--5--|
    --4--4--4--4--4--4--4--4--|--5--5--5--5--5--5--5--5--|
    
                                                                                    
    --------------------------|-----------------------------|----------------------|
    --------------------------|-----------------------------|----------------------|
    --------------------------|-----------------------------|----------------------|
    --------------------------|-----------------------------|----------------------|
    --7--7--7--7--7--7--7--7--|--10--10--10--9--9--9--5--5--|--2----2----2------0--|
    --7--7--7--7--7--7--7--7--|--10--10--10--9--9--9--5--5--|--2----2----2------0--|
    
                                                                                
    ----------------------|-------------------------|--------------------------|
    ----------------------|-------------------------|--------------------------|
    ----------------------|-------------------------|--------------------------|
    ----------------------|-------------------------|--------------------------|
    --0--2--2-------------|--2----2--2--2--2--2--2--|--2--2--2--2--2--3--3--0--|
    --0--2--2--0----------|--2----2--2--2--2--2--2--|--2--2--2--2--2--3--3--0--|
    
                                                          
    --------------------------|--------------------------|
    --------------------------|--------------------------|
    --------------------------|--------------------------|
    --------------------------|--------------------------|
    --2--2--2--2--2--2--2--2--|--2--2--2--2--2--2--2--2--|
    --2--2--2--2--2--2--2--2--|--2--2--2--2--2--2--2--2--|
    
                                                                              
    --------------------------|--------------------------|-------------------|
    --------------------------|--------------------------|-------------------|
    --------------------------|--------------------------|-------------------|
    --------------------------|--------------------------|--5----------------|
    --2--2--2--2--2--2--2--2--|--2--2--2--2--2--2--2--2--|--5----------------|
    --2--2--2--2--2--2--2--2--|--2--2--2--2--2--2--2--2--|--5----------------|
    
                                                                
    -------------------|-------------------|-------------------|
    -------------------|-------------------|-------------------|
    --7----------------|--5----------------|-------------------|
    --7----------------|--5----------------|----------4--------|
    --5----------------|--3----------------|----------4--------|
    -------------------|-------------------|----------4--------|
    
                                                                          
    ------------------------|------------------------|-------------------|
    ------------------------|------------------------|-------------------|
    ------------------------|------------------------|--5----------------|
    ------------------------|------------------------|--5----------------|
    --0h-2----0h-2----0h-2--|----0h-2----2--2--2--2--|--3----------------|
    --0h-2----0h-2----0h-2--|----0h-2----2--2--2--2--|-------------------|
    
                                                                 
    -------------------|-------------------|--------------------|
    -------------------|-------------------|--------------------|
    -------------------|-------------------|--7----7------------|
    ----------4--------|--5----------------|--7----7------------|
    ----------4--------|--5----------------|--5----5------------|
    ----------4--------|--5----------------|--------------------|
    
                                                          
    --------------------------|--------------------------|
    --------------------------|--------------------------|
    --------------------------|--------------------------|
    --------------------------|--------------------------|
    --2--2--2--2--2--2--2--2--|--2--2--2--2--2--2--2--2--|
    --2--2--2--2--2--2--2--2--|--2--2--2--2--2--2--2--2--|
    
                                                          
    --------------------------|--------------------------|
    --------------------------|--------------------------|
    --------------------------|--------------------------|
    --------------------------|--------------------------|
    --2--2--2--2--2--2--2--2--|--2--2--2--2--2--2--2--2--|
    --2--2--2--2--2--2--2--2--|--2--2--2--2--2--2--2--2--|
    
                                                                              
    --------------------------|--------------------------|-------------------|
    --------------------------|--------------------------|-------------------|
    --------------------------|--------------------------|-------------------|
    --5--5--5--5--5--5--5--5--|--5--5--5--5--5--5--5--5--|--0----------------|
    --3--3--3--3--3--3--3--3--|--3--3--3--3--3--3--3--3--|--0----------------|
    --------------------------|--------------------------|--0----------------|
    
                                                                              
    -------------------|--------------------------|--------------------------|
    -------------------|--------------------------|--------------------------|
    --7----------------|--------------------------|--------------------------|
    --7----------------|--------------------------|--------------------------|
    
    Узнай ВСЕ о своем друге в ВК или FB
    --5----------------|--2--2--2--2--2--2--2--2--|--2--2--2--2--2--2--2--2--| -------------------|--2--2--2--2--2--2--2--2--|--2--2--2--2--2--2--2--2--| --------------------------|--------------------------| --------------------------|--------------------------| --------------------------|--------------------------| --------------------------|--------------------------| --4--4--4--4--4--4--4--4--|--5--5--5--5--5--5--5--5--| --4--4--4--4--4--4--4--4--|--5--5--5--5--5--5--5--5--| --------------------------|------------------------|----------------------| --------------------------|------------------------|----------------------| --------------------------|--5--5--5----7--7--7----|----------------------| --------------------------|--5--5--5----7--7--7----|----------------------| --7--7--7--7--7--7--7--7--|--3--3--3----5--5--5----|------2----0h-2----0--| --7--7--7--7--7--7--7--7--|------------------------|------2----0h-2----0--| ---------------------------|---------------------------|---------------------| ---------------------------|---------------------------|---------------------| ---------------------------|---------------------------|---------------------| ---------------------------|---------------------------|---------------------| ----0h-2----2----2----2----|--2----2----2----3----0----|------------5--4--3--| ----0h-2----2----2----2----|--2----2----2----3----0----|------------5--4--3--| ------------------------|------------------------|-----------------------| ------------------------|------------------------|-----------------------| ------------------------|------------------------|-----------------------| ------------------------|------------------------|-----------------------| --0--0----0----0----0-0-|--0--0----0----2--2--3--|--0--0----0----0----0--| --0--0----0----0----0-0-|--0--0----0----2--2--3--|--0--0----0----0----0--| -----------------------|------------------------|------------------------| -----------------------|------------------------|------------------------| -----------------------|------------------------|------------------------| -----------------------|------------------------|------------------------| ----0----0----3--3--3--|--0--0----0----0----0-0-|--0--0----0----2--2--3--| ----0----0----3--3--3--|--0--0----0----0----0-0-|--0--0----0----2--2--3--| -----------------------|--------------------|----------------------| -----------------------|--------------------|----------------------| -----------------------|-----------5--------|----------------------| -----------------------|--3--------5--------|----------------------| --0--0----0----0----0--|--3--------3--------|--2----2----2------3--| --0--0----0----0----0--|--3-----------------|--2----2----2------3--| -----------------------|-----------------------|------------------------| -----------------------|-----------------------|------------------------| -----------------------|-----------------------|------------------------| -----------------------|-----------------------|------------------------| --2----2----2----2--0--|--2----2----2----2--3--|--3----3--0--2--3--6~---| --2----2----2----2--0--|--2----2----2----2--3--|--3----3----------------| ----------------------|---------------------|-----------------------| ----------------------|---------------------|-----------------------| ----------------------|------------4--------|-----------------------| ----------------------|------------4--------|-----------------------| --2----2----2------3--|--2----2----2--------|--2----2----2----2--2--| --2----2----2------3--|--2----2-------------|--2----2----2----2--2--| -----------------------|------------------------|------------------------| -----------------------|------------------------|------------------------| -----------------------|------------------------|------------------------| -----------------------|------------------------|------------------------| --3------0--2--3--6----|--0--0----0----0----0-0-|--0--0----0----2--2--3--| --3------0--2--3--6----|--0--0----0----0----0-0-|--0--0----0----2--2--3--| -----------------------|-----------------------|------------------------| -----------------------|-----------------------|------------------------| -----------------------|-----------------------|------------------------| -----------------------|-----------------------|------------------------| --0--0----0----0----0--|----0----0----3--3--3--|--0--0----0----0----0-0-| --0--0----0----0----0--|----0----0----3--3--3--|--0--0----0----0----0-0-| ---------------------|-----------------------|--------------------| ---------------------|-----------------------|--------------------| ---------------------|--2~-------------------|-----------5--------| ---------------------|-----------------------|--3--------5--------| --0--0----5~---------|-----------0--0--0--0--|--3--------3--------| --0--0---------------|-----------0--0--0--0--|--3-----------------| -------------------|-------------------|-------------------|------------------| -------------------|-------------------|-------------------|------------------| --3----------------|-------------------|-------------------|------------------| --3----------------|----------2--------|--0----------------|------------------| --1----------------|----------2--------|--0----------------|------------------| -------------------|----------2--------|--0----------------|------------------| -------------------|-------------------|-------------------|-------------------| -------------------|-------------------|-------------------|-------------------| --3----------------|-------------------|-------------------|--5----------------| --3----------------|----------2--------|--3----------------|--5----------------| --1----------------|----------2--------|--3----------------|--3----------------| -------------------|----------2--------|--3----------------|-------------------| ------|------|------|------|------|------|------|------|------| ------|------|------|------|------|------|------|------|------| ------|------|------|------|------|------|------|------|------| ------|------|------|------|------|------|------|------|------| ------|------|------|------|------|------|------|------|------| ------|------|------|------|------|------|------|------|------| --------------------------|--------------------------| --------------------------|--------------------------| --------------------------|--------------------------| --------------------------|--------------------------| --2--2--2--2--2--2--2--2--|--2--2--2--2--2--2--2--2--| --2--2--2--2--2--2--2--2--|--2--2--2--2--2--2--2--2--| --------------------------|--------------------------| --------------------------|--------------------------| --------------------------|--------------------------| --------------------------|--------------------------| --2--2--2--2--2--2--2--2--|--2--2--2--2--2--2--2--2--| --2--2--2--2--2--2--2--2--|--2--2--2--2--2--2--2--2--| --------------------------|--------------------------|-------------------| --------------------------|--------------------------|-------------------| --------------------------|--------------------------|-------------------| --5--5--5--5--5--5--5--5--|--5--5--5--5--5--5--5--5--|--0----------------| --3--3--3--3--3--3--3--3--|--3--3--3--3--3--3--3--3--|--0----------------| --------------------------|--------------------------|--0----------------| -------------------|--------------------------|--------------------------| -------------------|--------------------------|--------------------------| --7----------------|--------------------------|--------------------------| --7----------------|--------------------------|--------------------------| --5----------------|--2--2--2--2--2--2--2--2--|--2--2--2--2--2--2--2--2--| -------------------|--2--2--2--2--2--2--2--2--|--2--2--2--2--2--2--2--2--| --------------------------|--------------------------| --------------------------|--------------------------| --------------------------|--------------------------| --------------------------|--------------------------| --4--4--4--4--4--4--4--4--|--5--5--5--5--5--5--5--5--| --4--4--4--4--4--4--4--4--|--5--5--5--5--5--5--5--5--| --------------------------|----------------------|----------------------| --------------------------|----------------------|----------------------| --------------------------|--5----5----7----7----|----------------------| --------------------------|--5----5----7----7----|----------------------| --7--7--7--7--7--7--7--7--|--3----3----5----5----|------2----0h-2----0--| --7--7--7--7--7--7--7--7--|----------------------|------2----0h-2----0--| ----------------------|------------------------|----------------------| ----------------------|------------------------|----------------------| ----------------------|------------------------|----------------------| ----------------------|------------------------|----------------------| --2----2----2------2--|--2--0--2----0--2--2----|--2----2----2------2--| --2----2----2------2--|--2--0--2----0--2--2----|--2----2----2------2--| -------------------------|----------------------|-------------------------| -------------------------|----------------------|-------------------------| -------------------------|----------------------|-------------------------| -------------------------|----------------------|-------------------------| --0--2--2----2--2--2--2--|--2----2----2------2--|--2--0--2----0--2--2--0--| --0--2--2----2--2--2--2--|--2----2----2------2--|--2--0--2----0--2--2--0--| --------------------------|--------------------------|----------------------| --------------------------|--------------------------|----------------------| --------------------------|--------------------------|----------------------| --------------------------|--------------------------|----------------------| --0--2--2--0--0--2--2--0--|--0--2--2--5--5--4--4--0--|--2----2----2------2--| --0--2--2--0--0--2--2--0--|--0--2--2--5--5--4--4--0--|--2----2----2------2--| ---------------------|----------------------|---------------------| ---------------------|----------------------|---------------------| ---------------------|----------------------|---------------------| ---------------------|----------------------|---------------------| --2----2----2--------|--2----2----2------2--|--2----2----2--------| --2----2----2--------|--2----2----2------2--|--2----2----2--------| ----------------------|---------------------|----------------------| ----------------------|---------------------|----------------------| ----------------------|---------------------|----------------------| ----------------------|---------------------|----------------------| --2----2----2------2--|--2----2----2--------|--2----2----2------2--| --2----2----2------2--|--2----2----2--------|--2----2----2------2--| -----------------------|| -----------------------|| -----------------------|| ------------2--2--2----|| --2----2----2--2--2----|| --2----2----2--2--2----||

    лекарство в аптеке
    список лекарств






    О сайтеАккордыХит-парадПоискУроки ФорумыИщу песню
    ПрограммыСвежачок-сПодпискаСтатьи
    Яндекс.Метрика