Басовая табулатура Nightwish | Nemo гитара табулатуры уроки тексты песен Nightwish текст lyrics песня аккорды песни ноты нота электрогитара струна  
   А Б В Г Д Е Ж З И К Л М Н О П Р С Т У Ф Х Ч Ш Ы Э Ю Я       Разные песни
1-9 A B C D E F G H I J K L M N O P Q R S T U V W Y Z      Все исполнители in english

    



группа Nightwish, Басовая табулатура песни Nemo

Работа в Европе для граждан РФ, Украины, СНГ

  • минимальная зарплата $500.
  • виза и контракт на полгода, возможно продление
  • проживание оплачивает работодатель
  • нужен только загранпаспорт
  • оформление 190 €
  • данное предложение - отличная возможность эмигрировать в Европу и закрепиться здесь навсегда.

  • Мы свяжемся с Вами по WhatsApp или Viber и ответим на любые вопросы.
    на нашем сайте можно почитать подробнее »

    Группа: Nightwish - другие аккорды (414),   о группе (12 статей),   диски (6),   фотографии (25)
    Басовая табулатура песни: Nemo
    Просмотров: 1584
    Подобрал: Forever (forever@akkords.ru)




        
                                         Nemo                                       
    
         
                                                              
    F||------|------|------|------|--------------------------|
    C||------|------|------|------|--2--2--2--2--2--2--2--2--|
    G||------|------|------|------|--------------------------|
    D||------|------|------|------|--------------------------|
    
                                                          
    --------------------------|--------------------------|
    --2--2--2--2--2--2--2--2--|--------------------------|
    --------------------------|--------------------------|
    --------------------------|--3--3--3--3--3--3--3--3--|
    
                                                          
    --------------------------|--------------------------|
    --0--0--0--0--0--0--0--0--|--2--2--2--2--2--2--2--2--|
    --------------------------|--------------------------|
    --------------------------|--------------------------|
    
                                                          
    --------------------------|--------------------------|
    --2--2--2--2--2--2--2--2--|--2--2--2--2--2--2--2--2--|
    --------------------------|--------------------------|
    --------------------------|--------------------------|
    
                                                          
    --------------------------|--------------------------|
    --2--2--2--2--2--2--2--2--|--2--2--2--2--2--2--2--2--|
    --------------------------|--------------------------|
    --------------------------|--------------------------|
    
                                                          
    --------------------------|--2--2--2--2--2--2--2--2--|
    --4--4--4--4--4--4--4--4--|--------------------------|
    --------------------------|--------------------------|
    --------------------------|--------------------------|
    
                                                          
    --------------------------|--------------------------|
    --0--0--0--0--0--0--0--0--|--2--2--2--2--2--2--2--2--|
    --------------------------|--------------------------|
    --------------------------|--------------------------|
    
                                                          
    --------------------------|--------------------------|
    --2--2--2--2--2--2--2--2--|--2--2--2--2--2--2--2--2--|
    --------------------------|--------------------------|
    --------------------------|--------------------------|
    
                                                          
    --------------------------|--2--2--2--2--2--2--0-----|
    --2--2--2--2--2--2--2--2--|-----------------------4--|
    --------------------------|--------------------------|
    --------------------------|--------------------------|
    
                                                          
    --------------------------|--2--2--2--2--2--2--0-----|
    --2--2--2--2--2--2--2--2--|-----------------------4--|
    --------------------------|--------------------------|
    --------------------------|--------------------------|
    
                                                                                 
    --------------------------|------------------------|------------------------|
    --0--0--0--0--0--0--0--0--|--2--2--2----2--2--2----|--2--2--2----2--2--2----|
    --------------------------|------------------------|------------------------|
    --------------------------|------------------------|------------------------|
    
                                                                               
    ------------------------|------------------------|------------------------|
    --0--0--0----0--0--0----|--0--0--0----0--0--0----|--2--2--2----2--2--2----|
    ------------------------|------------------------|------------------------|
    ------------------------|------------------------|------------------------|
    
                                                                               
    ------------------------|--0--0--0----0--0--0----|------------------------|
    --2--2--2----2--2--2----|------------------------|--0--0--0----0--0--0----|
    ------------------------|------------------------|------------------------|
    ------------------------|------------------------|------------------------|
    
                                                                                 
    -------|----|----|----|--------------------------|--------------------------|
    --2----|----|----|----|--2--2--2--2--2--2--2--2--|--4--4--4--4--4--4--4--4--|
    -------|----|----|----|--------------------------|--------------------------|
    -------|----|----|----|--------------------------|--------------------------|
    
                                                          
    --2--2--2--2--2--2--2--2--|--------------------------|
    --------------------------|--0--0--0--0--0--0--0--0--|
    --------------------------|--------------------------|
    --------------------------|--------------------------|
    
                                                          
    --0--0--0--0--0--0--0--0--|--0--0--0--0--0--0--0--0--|
    --------------------------|--------------------------|
    --------------------------|--------------------------|
    --------------------------|--------------------------|
    
                                                          
    --0--0--0--0--0--0--0--0--|--0--0--0--0--0--0--0--0--|
    --------------------------|--------------------------|
    --------------------------|--------------------------|
    --------------------------|--------------------------|
    
                                                          
    --------------------------|--0--0--0--0--0--0--0--0--|
    --------------------------|--------------------------|
    --3--3--3--3--3--3--3--3--|--------------------------|
    --------------------------|--------------------------|
    
                                                                                   
    --------------------------|--------------------------|------------------------|
    --------------------------|--3--3--3--3--3--3--3--3--|--2--2--2----2--2--2----|
    --3--3--3--3--3--3--3--3--|--------------------------|------------------------|
    --------------------------|--------------------------|------------------------|
    
                                                                               
    ------------------------|------------------------|------------------------|
    --2--2--2----2--2--2----|--0--0--0----0--0--0----|--0--0--0----0--0--0----|
    ------------------------|------------------------|------------------------|
    ------------------------|------------------------|------------------------|
    
                                                                               
    ------------------------|------------------------|--0--0--0----0--0--0----|
    --2--2--2----2--2--2----|--2--2--2----2--2--2----|------------------------|
    ------------------------|------------------------|------------------------|
    ------------------------|------------------------|------------------------|
    
                                                                       
    ------------------------|-------------------|---------------------|
    --0--0--0----0--0--0----|--2----------------|--2----2----2--------|
    ------------------------|-------------------|---------------------|
    ------------------------|-------------------|---------------------|
    
                                                                                    
    -------------------|--------------------|-------------------|------------------|
    --0----------------|--0----0------------|--2----------------|------------------|
    -------------------|--------------------|-------------------|------------------|
    -------------------|--------------------|-------------------|------------------|
    
                                                                      
    ------|------|------|------|------|------|-----------------------|
    ------|------|------|------|------|------|-----------------------|
    ------|------|------|------|------|------|--7--------------7-7-7-|
    ------|------|------|------|------|------|-----------------------|
    
                                                                      
    
    Узнай ВСЕ о своем друге в ВК или FB
    --------------------|-----------------------|--------------------| --------------------|-----------------------|--------------------| --7-----------------|--7--------------7-7-7-|--7-----------------| --------------------|-----------------------|--------------------| -----------------------|---------------------------|------------------------| -----------------------|---------------------------|------------------------| --7----7--7--7----7----|--7--7--7--7--9--10--9--5--|--7----7--7--7----7--7--| -----------------------|---------------------------|------------------------| --------------------------|-----------------------|---------------------------| --------------------------|-----------------------|---------------------------| --7--7--7--7--7--7--7--7--|--7----7--7--7----7----|--7--7--7--7--9--10--9--5--| --------------------------|-----------------------|---------------------------| ------------------------|------------------------|--------------------------| ------------------------|------------------------|--------------------------| --7----7--7--7----7--7--|--7--7--7--7--7----5----|--7--7--7--7--7--7--7--7--| ------------------------|------------------------|--------------------------| --------------------------|--------------------------| --------------------------|--------------------------| --7--7--7--7--7--7--7--7--|--------------------------| --------------------------|--3--3--3--3--3--3--3--3--| --------------------------|--------------------------| --------------------------|--------------------------| --5--5--5--5--5--5--5--5--|--7--7--7--7--7--7--7--7--| --------------------------|--------------------------| --------------------------|--------------------------| --------------------------|--------------------------| --7--7--7--7--7--7--7--7--|--------------------------| --------------------------|--3--3--3--3--3--3--3--3--| --------------------------|--------------------------| --------------------------|--------------------------| --5--5--5--5--5--5--5--5--|--------------------------| --------------------------|--3--3--3--3--3--3--3--3--| --------------------------|--------------------------| --------------------------|--------------------------| --------------------------|--------------------------| --3--3--3--3--3--3--3--3--|--3--3--3--3--3--3--3--3--| --------------------------|--------------------------| --------------------------|--------------------------| --------------------------|--------------------------| --3--3--3--3--3--3--3--3--|--3--3--3--3--3--3--3--3--| --------------------------|--------------------------|--------------------| --------------------------|--------------------------|--------------------| --------------------------|--------------------------|--6--------8--------| --3--3--3--3--3--3--3--3--|--3--3--3--3--3--3--3--3--|--------------------| ------|------|------|------|------------------------|------------------------| ------|------|------|------|------------------------|------------------------| ------|------|------|------|------------------------|------------------------| ------|------|------|------|--3--3--3----3--3--3----|--3--3--3----3--3--3----| ------------------------|------------------------|------------------------| ------------------------|------------------------|------------------------| ------------------------|------------------------|------------------------| --1--1--1----1--1--1----|--1--1--1----1--1--1----|--3--3--3----3--3--3----| ------------------------|------------------------|------------------------| ------------------------|------------------------|------------------------| ------------------------|--1--1--1----1--1--1----|------------------------| --3--3--3----3--3--3----|------------------------|--1--1--1----1--1--1----| ------------------------|------------------------|------------------------| ------------------------|------------------------|------------------------| ------------------------|------------------------|------------------------| --3--3--3----3--3--3----|--3--3--3----3--3--3----|--1--1--1----1--1--1----| ------------------------|------------------------|------------------------| ------------------------|------------------------|------------------------| ------------------------|------------------------|------------------------| --1--1--1----1--1--1----|--3--3--3----3--3--3----|--3--3--3----3--3--3----| ------------------------|------------------------|------------------------| ------------------------|------------------------|------------------------| --1--1--1----1--1--1----|------------------------|------------------------| ------------------------|--1--1--1----1--1--1----|--3--3--3----3--3--3----| ------------------------|------------------------|------------------------| ------------------------|------------------------|------------------------| ------------------------|------------------------|------------------------| --3--3--3----3--3--3----|--1--1--1----1--1--1----|--1--1--1----1--1--1----| ------------------------|------------------------|------------------------| ------------------------|------------------------|------------------------| ------------------------|------------------------|--1--1--1----1--1--1----| --3--3--3----3--3--3----|--3--3--3----3--3--3----|------------------------| ------------------------|------------------------|------------------------| ------------------------|------------------------|------------------------| ------------------------|------------------------|------------------------| --1--1--1----1--1--1----|--3--3--3----3--3--3----|--3--3--3----3--3--3----| ------------------------|------------------------|------------------------| ------------------------|------------------------|------------------------| ------------------------|------------------------|------------------------| --1--1--1----1--1--1----|--1--1--1----1--1--1----|--3--3--3----3--3--3----| ------------------------|------------------------|------------------------| ------------------------|------------------------|------------------------| ------------------------|--1--1--1----1--1--1----|------------------------| --3--3--3----3--3--3----|------------------------|--1--1--1----1--1--1----| ------------------------|------------------------|------------------------| ------------------------|------------------------|------------------------| ------------------------|------------------------|------------------------| --3--3--3----3--3--3----|--3--3--3----3--3--3----|--1--1--1----1--1--1----| ------------------------|------|| ------------------------|------|| ------------------------|------|| --1--1--1----1--1--1----|------||

    искать в аптеке
    список лекарств






    О сайтеАккордыХит-парадПоискУроки ФорумыИщу песню
    ПрограммыСвежачок-сПодпискаСтатьи
    Яндекс.Метрика