Табулатура Nightwish | Crimson Tide /deep Blue Sea гитара табулатуры уроки тексты песен Nightwish текст lyrics песня аккорды песни ноты нота электрогитара струна  
   А Б В Г Д Е Ж З И К Л М Н О П Р С Т У Ф Х Ч Ш Ы Э Ю Я       Разные песни
1-9 A B C D E F G H I J K L M N O P Q R S T U V W Y Z      Все исполнители in english

    



группа Nightwish, Табулатура песни Crimson Tide /deep Blue Sea

Работа в Европе для граждан РФ, Украины, СНГ

  • минимальная зарплата $500.
  • виза и контракт на полгода, возможно продление
  • проживание оплачивает работодатель
  • нужен только загранпаспорт
  • оформление 190 €
  • данное предложение - отличная возможность эмигрировать в Европу и закрепиться здесь навсегда.

  • Мы свяжемся с Вами по WhatsApp или Viber и ответим на любые вопросы.
    на нашем сайте можно почитать подробнее »

    Группа: Nightwish - другие аккорды (414),   о группе (12 статей),   диски (6),   фотографии (25)
    Табулатура песни: Crimson Tide /deep Blue Sea
    Просмотров: 1273
    Прислал: Forever (forever@akkords.ru)




        
                      Instrumental (Crimson Tide/Deep Blue Sea)                     
    
                                                                                    
    E||-------|-------||--------------------|------------------|-------------------|
    B||-------|-------||--------------------|------------------|-------------------|
    G||*------|------*||*-------------------|------------------|-------------------|
    D||*------|------*||*--2----------------|------------------|--2----------------|
    A||-------|-------||---2----------------|------------------|--2----------------|
    E||-------|-------||---0----------------|------------------|--0----------------|
    
                                                                                    
    --24-23-22-21-20-19-18-17-16-15-14-13-12-11-10-9-8-7-6-5-4-3-3-2-1-0------------
    ---------------------------------------------------------------------4-3-2-1-0--
    -------------------------------------------------------------------------------3
    --------------------------------------------------------------------------------
    --------------------------------------------------------------------------------
    --------------------------------------------------------------------------------
    
                                                                        
    ||------------------------------|---------------------------------||
    ||------------------------------|---------------------------------||
    ||*-----------------------------|--------------------------------*||
    ||*--5--5-5-5--5-5-5--5-5-5--3--|--5--5-5-5--5-5-10--10-10-8-----*||
    ||---5--5-5-5--5-5-5--5-5-5--3--|--5--5-5-5--5-5-10--10-10-8------||
    ||---3--3-3-3--3-3-3--3-3-3--1--|--3--3-3-3--3-3-8---8--8--6--5~--||
    
                                                                   
    ------------------------------|------------------------------||
    ------------------------------|------------------------------||
    *-----------------------------|-----------------------------*||
    *--9--9-9-9--9-9-9--9-9-9--7--|--9--9-9-9--9-9--------------*||
    ---9--9-9-9--9-9-9--9-9-9--7--|--9--9-9-9--9-9-10-----9--7---||
    ---7--7-7-7--7-7-7--7-7-7--5--|--7--7-7-7--7-7-----7---------||
    
                                                              
    ----------------------------|----------------------------|
    ----------------------------|----------------------------|
    -------------------------9--|--9~---12--11--12---11-9----|
    --9--9-9-9--9-9----7/-9-----|----------------------------|
    --9--9-9-9--9-9-7-----------|----------------------------|
    --7--7-7-7--7-7-------------|----------------------------|
    
                                                              
    ----------------------------|----------------------------|
    --------------10~-10--------|----------------------------|
    -------12-12----------------|--9~---12--11--12---11-9----|
    --12------------------------|----------------------------|
    ----------------------------|----------------------------|
    ----------------------------|----------------------------|
    
                                                                           
    ---------------------------------------|------------------------------|
    -------10~--10b-10~--------------10-12-|--10----13--12--13---12-10----|
    -------------------------9-11-12-------|------------------------------|
    --12---------------10-12---------------|------------------------------|
    ---------------------------------------|------------------------------|
    ---------------------------------------|------------------------------|
    
                                                              
    ------------10--10--------|------------------------------|
    -------13-----------------|--10----13--12--13---12-10----|
    --12----------------------|------------------------------|
    --------------------------|------------------------------|
    --------------------------|------------------------------|
    --------------------------|------------------------------|
    
                                                               
    -------12---12--10-----------|----------------------------|
    -----------------------------|----------------------------|
    --12-----------------------9-|--9----12--11--12---11-9----|
    ------------------------12---|----------------------------|
    -----------------------------|----------------------------|
    -----------------------------|----------------------------|
    
                                                                        
    --------------------------------------|----------------------------|
    --------------10--10--10--10--10~-----|----------------------------|
    -------12-12--------------------------|--9----12--11--12---11-9----|
    --12----------------------------------|----------------------------|
    --------------------------------------|----------------------------|
    --------------------------------------|----------------------------|
    
                                                                           
    ---------------------------------------|------------------------------|
    -------10b--10b-10---------------10-12-|--10----13--12--13---12-10----|
    -------------------------9-11-12-------|------------------------------|
    --12---------------10-12---------------|------------------------------|
    ---------------------------------------|------------------------------|
    ---------------------------------------|------------------------------|
    
                                                                        
    ------------10--10--10--10--10~-----|------------------------------|
    -------13---------------------------|--10----13--12--13---12-10----|
    --12--------------------------------|------------------------------|
    ------------------------------------|------------------------------|
    ------------------------------------|------------------------------|
    ------------------------------------|------------------------------|
    
                                                               
    
    Узнай ВСЕ о своем друге в ВК или FB
    -------12---12--10-----------|----------------------------| -----------------------------|----------------------------| --12-----------------------9-|--9~---12--11--12---11-9----| ------------------------12---|----------------------------| -----------------------------|----------------------------| -----------------------------|----------------------------| ----------------------------|----------------------------| --------------10~-10--------|----------------------------| -------12-12----------------|--9~---12--11--12---11-9----| --12------------------------|----------------------------| ----------------------------|----------------------------| ----------------------------|----------------------------| ---------------------------------------|------------------------------| -------10~--10b-10~--------------10-12-|--10----13--12--13---12-10----| -------------------------9-11-12-------|------------------------------| --12---------------10-12---------------|------------------------------| ---------------------------------------|------------------------------| ---------------------------------------|------------------------------| ------------10--10--------|------------------------------| -------13-----------------|--10----13--12--13---12-10----| --12----------------------|------------------------------| --------------------------|------------------------------| --------------------------|------------------------------| --------------------------|------------------------------| -------12---12--10-----------|----------------------| -----------------------------|----------------------| --12-----------------------9-|------------5-5-------| ------------------------12---|--2-2-------5-5-------| -----------------------------|--2-2-------3-3-------| -----------------------------|--0-0-----------------| ------------------------------------|----------------------| ------------------------------------|----------------------| ------------7-7-7-7-7-7-7-7-7-7-7-7-|------------5-5-------| --5-5-------7-7-7-7-7-7-7-7-7-7-7-7-|--2-2-------5-5-------| --5-5-------5-5-5-5-5-5-5-5-5-5-5-5-|--2-2-------3-3-------| --3-3-------------------------------|--0-0-----------------| ----------------------|----------------------|----------------------| ----------------------|----------------------|----------------------| ------------7-7-------|--2-2-----------------|--5-5-----------------| --5-5-------7-7-------|--2-2-------3-3-------|--5-5-------5-5-------| --5-5-------5-5-------|--0-0-------3-3-------|--3-3-------5-5-------| --3-3-----------------|------------1-1-------|------------3-3-------| ----------------------|------------------------------| ----------------------|------------------------------| --2-2-----------------|--5-5-------------------------| --2-2-------3-3-------|--5-5-------5--4--3--2--1--0--| --0-0-------3-3-------|--3-3-------------------------| ------------1-1-------|------------------------------| |------------------------------|--------------------------2~--|| |------------------------------|------------------------------|| |*--------------------------7--|-----------------------------*|| |*--2--2-2-2--2-2-2--2-2-2--7--|--2--2-2-2--2-2-7--7-7-5-----*|| |---2--2-2-2--2-2-2--2-2-2--5--|--2--2-2-2--2-2-7--7-7-5------|| |---0--0-0-0--0-0-0--0-0-0-----|--0--0-0-0--0-0-5--5-5-3------|| ------------------------------|---------------------------------|| ------------------------------|---------------------------------|| *-----------------------------|--------------------------------*|| *--5--5-5-5--5-5-5--5-5-5--3--|--5--5-5-5--5-5-10--10-10-8-----*|| ---5--5-5-5--5-5-5--5-5-5--3--|--5--5-5-5--5-5-10--10-10-8------|| ---3--3-3-3--3-3-3--3-3-3--1--|--3--3-3-3--3-3-8---8--8--6--5~--|| ------------------------------|------------------------------|| ------------------------------|------------------------------|| *-----------------------------|-----------------------------*|| *--9--9-9-9--9-9-9--9-9-9--7--|--9--9-9-9--9-9--------------*|| ---9--9-9-9--9-9-9--9-9-9--7--|--9--9-9-9--9-9-10-----9--7---|| ---7--7-7-7--7-7-7--7-7-7--5--|--7--7-7-7--7-7-----7---------|| -----------------------------|-------------------|| -----------------------------|-------------------|| -----------------------------|-------------------|| --9--9-9-9--9-9--------------|--9----------------|| --9--9-9-9--9-9-10-----9--7--|--9----------------|| --7--7-7-7--7-7-----7--------|--7----------------||

    искать в аптеке
    список лекарств






    О сайтеАккордыХит-парадПоискУроки ФорумыИщу песню
    ПрограммыСвежачок-сПодпискаСтатьи
    Яндекс.Метрика