Табулатура Radiohead | Nobody Does It Better гитара табулатуры уроки тексты песен Radiohead текст lyrics песня аккорды песни ноты нота электрогитара струна  
   А Б В Г Д Е Ж З И К Л М Н О П Р С Т У Ф Х Ч Ш Ы Э Ю Я       Разные песни
1-9 A B C D E F G H I J K L M N O P Q R S T U V W Y Z      Все исполнители in english

    



группа Radiohead, Табулатура песни Nobody Does It Better

Работа в Европе для граждан РФ, Украины, СНГ

  • минимальная зарплата $500.
  • виза и контракт на полгода, возможно продление
  • проживание оплачивает работодатель
  • нужен только загранпаспорт
  • оформление 190 €
  • данное предложение - отличная возможность эмигрировать в Европу и закрепиться здесь навсегда.

  • Мы свяжемся с Вами по WhatsApp или Viber и ответим на любые вопросы.
    на нашем сайте можно почитать подробнее »

    Группа: Radiohead - другие аккорды (189),   о группе (6 статей),   диски (9),   фотографии (134)
    Табулатура песни: Nobody Does It Better
    Просмотров: 1054
    Подобрал: Badtimes (indiespace@akkords.ru)




        
    
                                                                                 
    E||------|------|------|------|----------------------|----------------------|
    B||------|------|------|------|--2--------2----2--2--|--1--------1----1--1--|
    G||------|------|------|------|--2--------2----2--2--|--2--------2----2--2--|
    D||------|------|------|------|--2--------2----2--2--|--2--------2----2--2--|
    A||------|------|------|------|----------------------|----------------------|
    E||------|------|------|------|----------------------|----------------------|
    
                                                                     
    --------------------|--------------------|----------------------|
    --------------------|--------------------|--2--------2----2--2--|
    --1--------1--------|--1--------1--------|--2--------2----2--2--|
    --2--------2--------|--2--------2--------|--2--------2----2--2--|
    --2--------2--------|--2--------2--------|----------------------|
    --------------------|--------------------|----------------------|
    
                                                                     
    ----------------------|--------------------|--------------------|
    --1--------1----1--1--|--------------------|--------------------|
    --2--------2----2--2--|--1--------1--------|--1--------1--------|
    --2--------2----2--2--|--2--------2--------|--2--------2--------|
    ----------------------|--2--------2--------|--2--------2--------|
    ----------------------|--------------------|--------------------|
    
                                                                         
    ----------------------|----------------------|----------------------|
    --2--------2----2--2--|--1--------1----1--1--|--4--------4----4--4--|
    --2--------2----2--2--|--2--------2----2--2--|--5--------5----5--5--|
    --2--------2----2--2--|--2--------2----2--2--|--6--------6----6--6--|
    ----------------------|----------------------|--6--------6----6--6--|
    ----------------------|----------------------|--4--------4----4--4--|
    
                                                                         
    ----------------------|----------------------|----------------------|
    --5--------5----5--5--|--2--------2----2--2--|--4--------4----4--4--|
    --6--------6----6--6--|--2--------2----2--2--|--4--------4----4--4--|
    --6--------6----6--6--|--4--------4----4--4--|--4--------4----4--4--|
    --4--------4----4--4--|--4--------4----4--4--|--2--------2----2--2--|
    ----------------------|--2--------2----2--2--|----------------------|
    
                                                                         
    ----------------------|----------------------|----------------------|
    ----------------------|----------------------|----------------------|
    --1--------1----1--1--|--1--------1----1--1--|--1--------1----1--1--|
    --2--------2----2--2--|--2--------2----2--2--|--2--------2----2--2--|
    --2--------2----2--2--|--2--------2----2--2--|--2--------2----2--2--|
    ----------------------|----------------------|----------------------|
    
                                                                         
    ----------------------|----------------------|----------------------|
    --4--------4----4--4--|--5--------5----5--5--|--5--------5----5--5--|
    --5--------5----5--5--|--6--------6----6--6--|--5--------5----5--5--|
    --4--------4----4--4--|--7--------7----7--7--|--7--------7----7--7--|
    --6--------6----6--6--|--7--------7----7--7--|--7--------7----7--7--|
    --4--------4----4--4--|--5--------5----5--5--|--5--------5----5--5--|
    
                                                                         
    ----------------------|----------------------|----------------------|
    ----------------------|--4--------4----4--4--|--5--------5----5--5--|
    --1--------1----1--1--|--5--------5----5--5--|--6--------6----6--6--|
    --2--------2----2--2--|--4--------4----4--4--|--7--------7----7--7--|
    --2--------2----2--2--|--6--------6----6--6--|--7--------7----7--7--|
    ----------------------|--4--------4----4--4--|--5--------5----5--5--|
    
                                                                         
    ----------------------|----------------------|----------------------|
    --5--------5----5--5--|----------------------|--4--------4----4--4--|
    --5--------5----5--5--|--1--------1----1--1--|--5--------5----5--5--|
    --7--------7----7--7--|--2--------2----2--2--|--4--------4----4--4--|
    --7--------7----7--7--|--2--------2----2--2--|--6--------6----6--6--|
    --5--------5----5--5--|----------------------|--4--------4----4--4--|
    
                                                                       
    ----------------------|----------------------|--------------------|
    --5--------5----5--5--|--5--------5----5--5--|--4--------5--------|
    --6--------6----6--6--|--5--------5----5--5--|--5--------6--------|
    --7--------7----7--7--|--7--------7----7--7--|--6--------6--------|
    --7--------7----7--7--|--7--------7----7--7--|--6--------4--------|
    --5--------5----5--5--|--5--------5----5--5--|--4-----------------|
    
                                                                      
    --------------------|----------|----------|----------------------|
    --2--------4--------|----------|----------|--2--------2----2--2--|
    --2--------4--------|----------|----------|--2--------2----2--2--|
    --4--------4--------|----------|----------|--2--------2----2--2--|
    --4--------2--------|----------|----------|----------------------|
    --2-----------------|----------|----------|----------------------|
    
                                                                     
    ----------------------|--------------------|--------------------|
    --1--------1----1--1--|--------------------|--------------------|
    --2--------2----2--2--|--1--------1--------|--1--------1--------|
    --2--------2----2--2--|--2--------2--------|--2--------2--------|
    ----------------------|--2--------2--------|--2--------2--------|
    ----------------------|--------------------|--------------------|
    
                                                                       
    ----------------------|----------------------|--------------------|
    --2--------2----2--2--|--1--------1----1--1--|--------------------|
    --2--------2----2--2--|--2--------2----2--2--|--1--------1--------|
    --2--------2----2--2--|--2--------2----2--2--|--2--------2--------|
    ----------------------|----------------------|--2--------2--------|
    ----------------------|----------------------|--------------------|
    
                                                                       
    --------------------|----------------------|----------------------|
    --------------------|--2--------2----2--2--|--1--------1----1--1--|
    --1--------1--------|--2--------2----2--2--|--2--------2----2--2--|
    
    Узнай ВСЕ о своем друге в ВК или FB
    --2--------2--------|--2--------2----2--2--|--2--------2----2--2--| --2--------2--------|----------------------|----------------------| --------------------|----------------------|----------------------| ----------------------|----------------------|----------------------| --4--------4----4--4--|--5--------5----5--5--|--2--------2----2--2--| --5--------5----5--5--|--6--------6----6--6--|--2--------2----2--2--| --6--------6----6--6--|--6--------6----6--6--|--4--------4----4--4--| --6--------6----6--6--|--4--------4----4--4--|--4--------4----4--4--| --4--------4----4--4--|----------------------|--2--------2----2--2--| ----------------------|--------------------------|--------------------------| --4--------4----4--4--|--------------------------|--------------------------| --4--------4----4--4--|--1--1--1--1--1--1--1--1--|--1--1--1--1--1--1--1--1--| --4--------4----4--4--|--2--2--2--2--2--2--2--2--|--2--2--2--2--2--2--2--2--| --2--------2----2--2--|--2--2--2--2--2--2--2--2--|--2--2--2--2--2--2--2--2--| ----------------------|--------------------------|--------------------------| ----------------------|----------------------|----------------------| ----------------------|--4--------4----4--4--|--5--------5----5--5--| --1--------1----1--1--|--5--------5----5--5--|--6--------6----6--6--| --2--------2----2--2--|--4--------4----4--4--|--7--------7----7--7--| --2--------2----2--2--|--6--------6----6--6--|--7--------7----7--7--| ----------------------|--4--------4----4--4--|--5--------5----5--5--| ----------------------|----------------------|----------------------| --5--------5----5--5--|----------------------|--4--------4----4--4--| --5--------5----5--5--|--1--------1----1--1--|--5--------5----5--5--| --7--------7----7--7--|--2--------2----2--2--|--4--------4----4--4--| --7--------7----7--7--|--2--------2----2--2--|--6--------6----6--6--| --5--------5----5--5--|----------------------|--4--------4----4--4--| ----------------------|----------------------|----------------------| --5--------5----5--5--|--5--------5----5--5--|----------------------| --6--------6----6--6--|--5--------5----5--5--|--1--------1----1--1--| --7--------7----7--7--|--7--------7----7--7--|--2--------2----2--2--| --7--------7----7--7--|--7--------7----7--7--|--2--------2----2--2--| --5--------5----5--5--|--5--------5----5--5--|----------------------| ----------------------|----------------------|----------------------| --4--------4----4--4--|--5--------5----5--5--|--5--------5----5--5--| --5--------5----5--5--|--6--------6----6--6--|--5--------5----5--5--| --4--------4----4--4--|--7--------7----7--7--|--7--------7----7--7--| --6--------6----6--6--|--7--------7----7--7--|--7--------7----7--7--| --4--------4----4--4--|--5--------5----5--5--|--5--------5----5--5--| --------------------|--------------------|----------------------| --4--------5--------|--2--------4--------|----------------------| --5--------6--------|--2--------4--------|--1--------1----1--1--| --6--------6--------|--4--------4--------|--2--------2----2--2--| --6--------4--------|--4--------2--------|--2--------2----2--2--| --4-----------------|--2-----------------|----------------------| ----------------------|----------------------|----------------------| ----------------------|--2--------2----2--2--|--1--------1----1--1--| --1--------1----1--1--|--2--------2----2--2--|--2--------2----2--2--| --2--------2----2--2--|--2--------2----2--2--|--2--------2----2--2--| --2--------2----2--2--|----------------------|----------------------| ----------------------|----------------------|----------------------| --------------------|--------------------|----------------------| --------------------|--------------------|--2--------2----2--2--| --1--------1--------|--1--------1--------|--2--------2----2--2--| --2--------2--------|--2--------2--------|--2--------2----2--2--| --2--------2--------|--2--------2--------|----------------------| --------------------|--------------------|----------------------| ----------------------|--------------------|--------------------| --1--------1----1--1--|--------------------|--------------------| --2--------2----2--2--|--1--------1--------|--1--------1--------| --2--------2----2--2--|--2--------2--------|--2--------2--------| ----------------------|--2--------2--------|--2--------2--------| ----------------------|--------------------|--------------------| ----------------------|----------------------|----------------------| --2--------2----2--2--|--1--------1----1--1--|--4--------4----4--4--| --2--------2----2--2--|--2--------2----2--2--|--5--------5----5--5--| --2--------2----2--2--|--2--------2----2--2--|--6--------6----6--6--| ----------------------|----------------------|--6--------6----6--6--| ----------------------|----------------------|--4--------4----4--4--| ----------------------|--------------------------|--------------------------| --5--------5----5--5--|--------------------------|--------------------------| --6--------6----6--6--|--------------------------|--------------------------| --6--------6----6--6--|--------------------------|--------------------------| --4--------4----4--4--|--4--4--4--4--4--4--4--4--|--6--6--6--6--6--6--6--6--| ----------------------|--2--2--2--2--2--2--2--2--|--4--4--4--4--4--4--4--4--| --------------------------|--------------------------|----------|----------| --------------------------|--------------------------|----------|----------| --------------------------|--------------------------|----------|----------| --------------------------|--------------------------|----------|----------| --7--7--7--7--7--7--7--7--|--9--9--9--9--9--9--9--9--|----------|----------| --5--5--5--5--5--5--5--5--|--7--7--7--7--7--7--7--7--|----------|----------|

    лекарство в аптеке
    список лекарств






    О сайтеАккордыХит-парадПоискУроки ФорумыИщу песню
    ПрограммыСвежачок-сПодпискаСтатьи
    Яндекс.Метрика