Табулатура H.I.M. | Sigillum Diaboli гитара табулатуры уроки тексты песен H.I.M. текст lyrics песня аккорды песни ноты нота электрогитара струна  
   А Б В Г Д Е Ж З И К Л М Н О П Р С Т У Ф Х Ч Ш Ы Э Ю Я       Разные песни
1-9 A B C D E F G H I J K L M N O P Q R S T U V W Y Z      Все исполнители in english

    



группа H.I.M., Табулатура песни Sigillum Diaboli

Группа: H.I.M. - другие аккорды (273),   о группе (2 статей),   диски (5),   фотографии (82)
Табулатура песни: Sigillum Diaboli
Просмотров: 1340
Подобрал: TRianel (trianel@rambler.ru)




    
H.I.M.
"Sigillum Diaboli"
------------------
-----------------------------------------------------
-----------------------------------------------------
-----------------------------------------------------
---------6----------9-------4------6------9------4---
---------6----------9-------4------6------9------4---
---------4----------7-------2------4------7------2---
--------------------------------------------------------------
--------------------------------------------------------------
--------------------------------------------------------------
--------6--------2-------9------8-----6-------2------9------8-

Продолжаем грести бабос на ботах в Telegram.
Только в этот раз есть вариант автоматизировать это дело, привлекая рефералов. Вы можете заработать если »

--------6--------2-------9------8-----6-------2------9------8- --------4--------0-------7------6-----4-------0------7------6- ----------------------------------------------------------------- ----------------------------------------------------------------- ----------------------------------------------------------------- ------13------12------13--12--13--12---13--12-------------------- ------13------12------13--12--13--12---13--12-------------------- ------11------10------11--10--11--10---11--10--------------------








О сайтеАккордыХит-парадПоискУроки ФорумыИщу песню
ПрограммыСвежачок-сПодпискаСтатьи
Яндекс.Метрика