Табулатура H.I.M. | It`s All Tears (Drown In This Love) гитара табулатуры уроки тексты песен H.I.M. текст lyrics песня аккорды песни ноты нота электрогитара струна  
   А Б В Г Д Е Ж З И К Л М Н О П Р С Т У Ф Х Ч Ш Ы Э Ю Я       Разные песни
1-9 A B C D E F G H I J K L M N O P Q R S T U V W Y Z      Все исполнители in english

    



группа H.I.M., Табулатура песни It`s All Tears (Drown In This Love)

Группа: H.I.M. - другие аккорды (273),   о группе (2 статей),   диски (5),   фотографии (82)
Табулатура песни: It`s All Tears (Drown In This Love)
Просмотров: 1326
Подобрал: TRianel (trianel@rambler.ru)




    
Добавьте, пожалуйста подбор на сайт:
Имя:TRianel
E-mail: trianel@rambler
H.I.M.
"Its All Tears" (Unplugged)
	[Intro]
E|---------------------|  4 раза
B|---------------------|
G|---------------------|
D|---------------------|
A|---------------------|
E|--0-----2---3---5----|
	[Chorus]
E|--------------------------------------------------------------------------|  2 раза
B|--------------------------------------------------------------------------|
G|-----5---4---2---4-4---5---4----------------------------------------------|
D|----------------------------------5---4---5---5-5-5-5h7---5--4--3--5------|
A|--------------------------------------------------------------------------|
E|--------------------------------------------------------------------------|
    
This may not sound right at first so i recomend to use the amazing slow
downer to listen and  figure it out.
I'm waiting for you to drown in my love
So open your arms
I'm waiting for you to open your arms
And drown in this love
E|--------------------------------------------------------------------------|  2 раза
B|-----5---4---2---4-4---5---4----------------------------------------------|
G|----------------------------------5---4---5---5-5-5-5h7---5--4--3--5------|
D|--------------------------------------------------------------------------|
A|--------------------------------------------------------------------------|
E|--------------------------------------------------------------------------|
I'm waiting for you to drown in my love
So open your arms
I'm waiting for you to open your arms
And drown in this love

Продолжаем грести бабос на ботах в Telegram.
Только в этот раз есть вариант автоматизировать это дело, привлекая рефералов. Вы можете заработать если »

[Verse 1] Open your arms and let me show you what love can be like It's all tears and it will be 'til the end of your time Come closer my love Will you let me tear your hearth apart? Now all holp is gone so drown in this love [Chorus] I'm waiting for you to drown in my love So open your arms I'm waiting for you to open your arms And drown in this love I'm waiting for you to drown in my love So open your arms I'm waiting for you to open your arms And drown in this love [Verse 2] So my love your laughter is finally turning into tears And you're begging for more though the end is getting near come closer my love I'll violate you in the most sensual way... until you drown in this love [Chorus] I'm waiting for you to drown in my love So open your arms I'm waiting for you to open your arms And drown in this love I'm waiting for you to drown in my love So open your arms I'm waiting for you to open your arms And drown in this love








О сайтеАккордыХит-парадПоискУроки ФорумыИщу песню
ПрограммыСвежачок-сПодпискаСтатьи
Яндекс.Метрика