Табулатура H.I.M. | And Love Said No гитара табулатуры уроки тексты песен H.I.M. текст lyrics песня аккорды песни ноты нота электрогитара струна  
   А Б В Г Д Е Ж З И К Л М Н О П Р С Т У Ф Х Ч Ш Ы Э Ю Я       Разные песни
1-9 A B C D E F G H I J K L M N O P Q R S T U V W Y Z      Все исполнители in english

    



группа H.I.M., Табулатура песни And Love Said No

Группа: H.I.M. - другие аккорды (273),   о группе (2 статей),   диски (5),   фотографии (82)
Табулатура песни: And Love Said No
Просмотров: 979
Подобрал: TRianel (trianel@rambler.ru)




    
H.I.M.
"And Love Said No"
------------------
INTRO (CLEAN)
e--3-------0--------2---------------------------------
b-----0-------0--------0-----3^0------5^3--------0----
g--------0-------0--------0---------0---------0-------
d-----------------------------------------------------
a-----------------------------------------------------
e-----------------------------------------------------
INTRO/CHORUS CHORDS (HEAVY) (* = bend)
e----------------------------------------------
b----------------------------------------------
g----------------------------------------------
d------------------------7---------------------
a--------------2---------5---------10------5---
e--3*--2*------0--------------------8------3---
VERSE PART A (CLEAN)
e-------------------------------------
b-------------------------------------
g-------------------------------------

Продолжаем грести бабос на ботах в Telegram.
Только в этот раз есть вариант автоматизировать это дело, привлекая рефералов. Вы можете заработать если »

d--------5-----4----9----------------- a--------7-----5----10----------5^7--- e--0-----------------------5^7-------- VERSE PART B (CLEAN) X 2 e------------------------- b------------------------- g------------------------- d------------------------- a--7------9----10----9---- e--5------7----8-----7---- (CHORUS) ^SEE ABOVE^ END OF CHORUS CHORDS ("KILL ME I CRIED...") e-------------------------------------------------------------------- b-------------------------------------------------------------------- g-------------------------------------------------------------------- d---------------------------------------------4----2----------------- a--2----4-----5----------------2----4----5----2----0----5------------ e--0----2-----3-----3*---2*----0----2----3--------------3-----3*--2*-








О сайтеАккордыХит-парадПоискУроки ФорумыИщу песню
ПрограммыСвежачок-сПодпискаСтатьи
Яндекс.Метрика