Табулатура H.I.M. | Don`t Close Your Heart гитара табулатуры уроки тексты песен H.I.M. текст lyrics песня аккорды песни ноты нота электрогитара струна  
   А Б В Г Д Е Ж З И К Л М Н О П Р С Т У Ф Х Ч Ш Ы Э Ю Я       Разные песни
1-9 A B C D E F G H I J K L M N O P Q R S T U V W Y Z      Все исполнители in english

    



группа H.I.M., Табулатура песни Don`t Close Your Heart

Группа: H.I.M. - другие аккорды (273),   о группе (2 статей),   диски (5),   фотографии (82)
Табулатура песни: Don`t Close Your Heart
Просмотров: 1216
Подобрал: TRianel (trianel@rambler.ru)




    
H.I.M.
"Don't Close Your Heart"
------------------------
SINTH			   Verse1
E |-----|-----|-----|-----|------|-----|-----|-----|-----|-----|-----|-----|
B |-----|-----|-----|-----|------|-----|-----|-----|-----|-----|-----|-----|
G |-----|-----|-----|-----|------|-----|-----|-----|-----|-----|-----|-----|
D |-----|-----|-----|-----|------|-----|-----|-----|-----|-----|-----|-----|
A |-----|-----|-----|-----|------|-----|-----|-----|-----|-----|-----|-----|
E |-----|-----|-----|-----|------|-----|-----|-----|-----|-----|-----|-----|
  (Acoustic Guitar)
|----0-----0------------|-----------------------|----------2----0-------|
|----0-----0------3--0--|--5----3---------------|--------------------3--|
|----0-----0------------|------------0----------|-----------------------|
|----2-----2------------|-----------------------|-----0-----------------|
|----2------------------|-----------------0--2--|--4--------------------|
|----0------------------|-----------------------|-----------------------|
|----------0--0--2--0--||-----------0-----------|-----------------------|
|--2---2---------------||---3-------0-----3--0--|--5----3---------------|
|--2---2---------------||*----------0-----------|------------0----------|
|--2---2---------------||*-----2----2-----------|-----------------------|
|----------------------||------2----------------|-----------------0--2--|
|----------------------||------0----------------|-----------------------|
|-----------2---0------|----------0--0--2--0---||----------0------------|
|-------------------3--|--2---2----------------||--3-------0------3--0--|
|----------------------|--2---2---------------*||----------0------------|
|-----0----------------|--2---2---------------*||-----2----2------------|
|--4-------------------|-----------------------||-----2-----------------|
|----------------------|-----------------------||-----0-----------------|
								  Chorus1
								   KEYBOARD
                                                  DISTORTION GUITAR   16x
|----------------------|---------0-------------||----------------------||
|--5----3--------------|---------2-------------||----------------------||
|------------0---------|---------2-------------||*--------------------*||
|----------------------|---------2-------------||*--------------------*||
|----------------0--2--|--4------0-------------||----------------------||
|----------------------|-----------------------||----------------------||
  Verse2
  SINTH
|-------|-------|-------|-------|--------|-------|-------|-------|
|-------|-------|-------|-------|--------|-------|-------|-------|
|-------|-------|-------|-------|--------|-------|-------|-------|
|-------|-------|-------|-------|--------|-------|-------|-------|
|-------|-------|-------|-------|--------|-------|-------|-------|
|-------|-------|-------|-------|--------|-------|-------|-------|
|----0-----0------------|-----------------------|----------2----0-------|
|----0-----0------3--0--|--5----3---------------|--------------------3--|
|----0-----0------------|------------0----------|-----------------------|
|----2-----2------------|-----------------------|-----0-----------------|
|----2------------------|-----------------0--2--|--4--------------------|
|----0------------------|-----------------------|-----------------------|
|----------0--0--2--0--||-----------0-----------|-----------------------|
|--2---2---------------||---3-------0-----3--0--|--5----3---------------|
|--2---2---------------||*----------0-----------|------------0----------|
|--2---2---------------||*-----2----2-----------|-----------------------|
|----------------------||------2----------------|-----------------0--2--|
|----------------------||------0----------------|-----------------------|
|-----------2---0------|----------0--0--2--0---||----------0------------|
|-------------------3--|--2---2----------------||--3-------0------3--0--|
|----------------------|--2---2---------------*||----------0------------|
|-----0----------------|--2---2---------------*||-----2----2------------|
|--4-------------------|-----------------------||-----2-----------------|
|----------------------|-----------------------||-----0-----------------|
               Chorus2
KEYBOARD
  DISTORTION GUITAR   16x
|----------------------|---------0-------------||----------------------||
|--5----3--------------|---------2-------------||----------------------||
|------------0---------|---------2-------------||*--------------------*||
|----------------------|---------2-------------||*--------------------*||
|----------------0--2--|--4------0-------------||----------------------||
|----------------------|-----------------------||----------------------||
				  KEYBOARD
               SOLO	  DISTORTION GUITAR   16x
|----------------------||----------------------||
|----------------------||----------------------||
|----------------------||*--------------------*||
|----------------------||*--------------------*||
|----------------------||----------------------||
|----------------------||----------------------||
   Verse3
     SINTH2
|----0-----0------------|-----------------------|----------2----0-------|
|----0-----0------3--0--|--5----3---------------|--------------------3--|
|----0-----0------------|------------0----------|-----------------------|
|----2-----2------------|-----------------------|-----0-----------------|
|----2------------------|-----------------0--2--|--4--------------------|
|----0------------------|-----------------------|-----------------------|
|----------0--0--2--0---|-----------0-----------|-----------------------|
|--2---2----------------|---3-------0-----3--0--|--5----3---------------|
|--2---2----------------|-----------0-----------|------------0----------|
|--2---2----------------|------2----2-----------|-----------------------|
|-----------------------|------2----------------|-----------------0--2--|
|-----------------------|------0----------------|-----------------------|
     Chorus_End
     DISTORTION GUITAR2                       3x   KEYBOARD           28x
|---------0------------||----------------------||----------------------||
|---------2------------||----------------------||----------------------||
|---------2------------||*--------------------*||*--------------------*||
|---------2------------||*--------------------*||*--------------------*||
|--4------0------------||----------------------||----------------------||
|----------------------||----------------------||----------------------||

DISTORTION GUITAR
E||--------------------|-------------------|-----------------|
B||--------------------|-------------------|-----------------|
G||*-------------------|--7----------------|-----------------|
D||*--5----------------|--7----------------|--7--------------|
A||---5----------------|--5----------------|--7--------------|
E||---3----------------|-------------------|--5--------------|
                     3x
|---------------------||-------------------|-----------------|
|---------------------||-------------------|-----------------|
|--------------------*||-------------------|-----------------|
|--9------------7----*||----2----2------5--|-----------------|
|--9------------7-----||----2----2------5--|-----------------|
|--7------------5-----||----0----0------3--|-----------------|
|---------------------|-------------------||
|---------------------|-------------------||
|---------------------|-------------------||
|-----7---------------|-------------------||
|-----7---------------|-------------------||
|-----5---------------|-------------------||
DISTORTION GUITAR2
E||-------------------------|--------------------------|
B||-------------------------|--------------------------|
G||-------------------------|--------------------------|
D||----7--7--7--7--7--7--7--|--7--7--7--7--7--7--7--7--|
A||----7--7--7--7--7--7--7--|--7--7--7--7--7--7--7--7--|
E||----5--5--5--5--5--5--5--|--5--5--5--5--5--5--5--5--|
|--------------------------|------------------------||--------------|
|--------------------------|------------------------||--------------|
|--------------------------|------------------------||*-------------|
|--7--7--7--7--7--7--7--7--|--7--7--7--7--7--7------||*--5----------|
|--7--7--7--7--7--7--7--7--|--7--7--7--7--7--7------||---5----------|
|--5--5--5--5--5--5--5--5--|--5--5--5--5--5--5------||---3----------|
                                                                  3x
|----------------------|------------------|------------------------||
|----------------------|------------------|------------------------||
|--7-------------------|------------------|-----------------------*||
|--7-------------------|--7---------------|--9---------------7----*||
|--5-------------------|--7---------------|--9---------------7-----||
|----------------------|--5---------------|--7---------------5-----||
|----------------------|------------------|-------------------------|
|----------------------|------------------|----2--2--2--2--2--2--2--|
|*---------------------|------------------|----2--2--2--2--2--2--2--|

Продолжаем грести бабос на ботах в Telegram.
Только в этот раз есть вариант автоматизировать это дело, привлекая рефералов. Вы можете заработать если »

|*----2------2------5--|------------------|----2--2--2--2--2--2--2--| |-----2------2------5--|------------------|----0--0--0--0--0--0--0--| |-----0------0------3--|------------------|-------------------------| 3x |---------------------------||---------------------|----------------| |--2--3--3--3--3--2--2--2---||---------------------|----------------| |--2--2--2--2--2--2--2--2--*||---------------------|----------------| |--2--2--2--2--2--2--2--2--*||----2------2------5--|----------------| |--0--0--0--0--0--0--0--0---||----2------2------5--|----------------| |---------------------------||----0------0------3--|----------------| |-------------------|------------------|| |-------------------|------------------|| |-------------------|------------------|| |-----7-------------|------------------|| |-----7-------------|------------------|| |-----5-------------|------------------|| SOLO E||-------------------|-----------------------|-------------------| B||-------------------|-----------------------|-------------------| G||-------------------|-----------------------|-------------------| D||-------------------|-----------------------|-------------------| A||----------------4--|--5~-----4--4~------2--|-------------------| E||----------5--7-----|-----------------2-----|--5~---------------| |-----------------||----------------------|-----------------------| |-----------------||----------------------|-----------------------| |-----------------||*---------------------|-----------------------| |-----------------||*---------------------|-----------------------| |-----------------||-------------------4--|--5~-----4--4~------2--| |-----------------||---7~\-------5--7-----|-----------------2-----| |----------------------|-------------------||---------------------| |----------------------|-------------------||---------------------| |----------------------|------------------*||---------------------| |----------------------|------------------*||-------------4-------| |----------------------|-------------------||----------------5----| |--5~------------------|-------------------||--7~\----------------| |----------------------|--------------------|---------------------| |----------------------|--------------------|---------------------| |----------------------|--------------------|---------------------| |----5~-----4~---------|--------------------|---------------------| |------------------5/7-|----5---------------|-----7---------------| |----------------------|-------7~-----------|-----5---------------| |---------------------|| |---------------------|| |---------------------|| |---------------------|| |---------------------|| |---------------------|| SINTH E |--B--|-----|--A--|-----|--B--|-----|--A--|-----|--B--|-----|--A--|-----| B |--G--|-----|--F#-|-----|--G--|-----|--F#-|-----|--G--|-----|--F#-|-----| G |--D--|-----|--D--|-----|--D--|-----|--D--|-----|--D--|-----|--D--|-----| D |-----|-----|-----|-----|-----|-----|-----|-----|-----|-----|-----|-----| A |-----|-----|-----|-----|-----|-----|-----|-----|-----|-----|-----|-----| E |-----|-----|-----|-----|-----|-----|-----|-----|-----|-----|-----|-----| |-A-E-A-|-----|-----|-----|-A-E-A-|-----|-----|-----|-A-E-A-|------|------| |-------|-----|-----|-----|-------|-----|-----|-----|-------|------|------| |-------|-----|-----|-----|-------|-----|-----|-----|-------|------|------| |-------|-----|-----|-----|-------|-----|-----|-----|-------|------|------| |-------|-----|-----|-----|-------|-----|-----|-----|-------|------|------| |-------|-----|-----|-----|-------|-----|-----|-----|-------|------|------| |------|-A-E-A-| |------|-------| |------|-------| |------|-------| |------|-------| |------|-------| SINTH2 E |-A-E-A-|-----|-----|-----|-A-E-A-|-----|-----|-----|-A-E-A-|------|------| B |-------|-----|-----|-----|-------|-----|-----|-----|-------|------|------| G |-------|-----|-----|-----|-------|-----|-----|-----|-------|------|------| D |-------|-----|-----|-----|-------|-----|-----|-----|-------|------|------| A |-------|-----|-----|-----|-------|-----|-----|-----|-------|------|------| E |-------|-----|-----|-----|-------|-----|-----|-----|-------|------|------| |-------|-A-E-A-| |-------|-------| |-------|-------| |-------|-------| |-------|-------| |-------|-------| KEYBOARD E |-D--|-F#--|-E--|-A--G--F#--|-E--D--|-F#--|-E--|-A--G--F#--|-E--D--|-F#--|-E---| B |----|-----|----|-----------|-------|-----|----|-----------|-------|-----|-----| G |----|-----|----|-----------|-------|-----|----|-----------|-------|-----|-----| D |----|-----|----|-----------|-------|-----|----|-----------|-------|-----|-----| A |----|-----|----|-----------|-------|-----|----|-----------|-------|-----|-----| E |----|-----|----|-----------|-------|-----|----|-----------|-------|-----|-----| |--A--G--F#--| |------------| |------------| |------------| |------------| |------------| Verse1 I know how it feels to be on your own In this cruel world where hearts are bound to turn to stone Where you are alone And tired of breathing It's all going wrong And you just can't stand the pain any more You're too numb to believe in In anything Chorus1 Baby just don't close your heart Baby just don't close your heart Baby just don't close your heart Darling don't let me down Verse2 I know how easy it is to let go Surrender to despair lurking at your door To lose your soul and all your feelings Strenght all gone And so many things left unsaid And deeds undone You've stopped caring Cause it's all in vain Chorus2 Baby just don't close your heart Baby just don't close your heart Baby just don't close your heart Darling don't let me down SOLO Verse3 You are so alone And tired of breathing It's all going wrong And you just can't stand the pain Chorus_End Baby just don't close your heart Baby just don't close your heart Baby just don't close your heart Darling don't let me down Don't let me down Don't let me down Just don't let me down








О сайтеАккордыХит-парадПоискУроки ФорумыИщу песню
ПрограммыСвежачок-сПодпискаСтатьи
Яндекс.Метрика