Табулатура Strokes | You Talk Way Too Much гитара табулатуры уроки тексты песен Strokes текст lyrics песня аккорды песни ноты нота электрогитара струна  
   А Б В Г Д Е Ж З И К Л М Н О П Р С Т У Ф Х Ч Ш Ы Э Ю Я       Разные песни
1-9 A B C D E F G H I J K L M N O P Q R S T U V W Y Z      Все исполнители

    



группа Strokes, Табулатура песни You Talk Way Too Much

Группа: Strokes - другие аккорды (19),   о группе (7 статей),   диски (9),   фотографии (48)
Табулатура песни: You Talk Way Too Much
Просмотров: 1023
Прислал: NYCgirl (system17@rambler.ru)




    
You Talk Way Too Much
The intro is quite easy to get the hang of
E-------------------------------------------------------------
B-------------------------------------------------------------
G---1--1--4--4---4--6--6---9----9---9--9--9-----------
D---2--2--5--5---5--7--7---10--10--10-10-10---------- X2
A---2--2--5--5---5--7--7---10--10--10-10-10----------
E-------------------------------------------------------------
And then go into this Riff with guitar 1
E---------------------------------------------------
B---------------------------------------------------
G---------------------------------------------------
D---13--11--13-11-13-11-11-----11-----11-----11-----
A---------------------------------14-----14-----14--
E---------------------------------------------------
While guitar one is playing Riff 1 guitar 2 plays these backing chords
E-------------------------------------------------------------
B-------------------------------------------------------------
G-------------------------------------------------------------
D-----7--7--7--7--7-7---7--7--7- 2---2-2-2-2-2-2-2---- (listen for strumming)
A-----7--7--7--7--7-7---7--7--7- 2---2-2-2-2-2-2-2----
E-----5--5--5--5--5--5--5--5--5--0-- 0-0-0-0-0-0-0----
Then everything stops except for one guitar and the drummer
The guitarist repeats
E----------------------------    ---------------------------------
B----------------------------    ---------------------------------
G---1--1--1--1--1--1------    ---------------------------------
D---2--2--2--2--2--2------or -- 6---6--6--6--6--6-----------
A---2--2--2--2--2--2------    --7-- 7--7--7--7--7-----------
E-----------------------------  7--7--7--7--7--7-----------
 (As many times as needed)
And then go into these chords

E------------------------------------------------------------------------------
B------------------------------------------------------------------------------
G--------------------------------------------------6---6--6--------------------
D---6---6---6---9--9--9----6--6--6---7---7---7-----7---7--7-------------9--9---

Продолжаем грести бабос на ботах в Telegram.
Только в этот раз есть вариант автоматизировать это дело, привлекая рефералов. Вы можете заработать если »

A---7---7---7---9--9--9----7--7--7---7---7---7-----7---7--7---7--7- 7---9--9--- E---7---7-- 7---7--7--7----7-- 7-7---5---5---5----------------7--7--7- 7--7--- I will put on the solo as soon as I can because I only have half. any corrections please let me know and email me at m.dandrea@ntlworld.com ================================================================================ Another way to play. intro E-0--0--0-- 0-0-0-0-0-- 0-0-0-- 3-3-3-3-- B-0--0--0-- 3-3-3-3-3-- 2-2-2-- 2-2-2-2-- G-1--1--1-- 1-1-1-1-1-- 2-2-2-- 2-2-2-2-- D-2--2--2-- 2-2-2-2-2-- 2-2-2-- 2-2-2-2-- A-2--2--2-- 2-2-2-2-2-- 0-0-0-- 0-0-0-0-- E-0--0--0-- 0-0-0-0-0-- ------- --------- then match Julians singing with these notes E--------------------------------------------------- B--------------------------------------------------- G--------------------------------------------------- D---13--11--13-11-13-11-11-----11-----11-----11----- A---------------------------------14-----14-----14-- E--------------------------------------------------- while guitar 2 is playing these chords E--0-0-0-0-0-0-- --0-0-0-0-0-0-- B--2-2-2-2-2-2-- --0-0-0-0-0-0-- G--2-2-2-2-2-2-- --1-1-1-1-1-1-- D--2-2-2-2-2-2-- --2-2-2-2-2-2-- A--0-0-0-0-0-0-- --2-2-2-2-2-2-- E--0-0-0-0-0-0-- --0-0-0-0-0-0-- then one guitarist either nick or albert play just the E chord after that they play these chords. E-0--- -- 0 - 0- 2-- --- 2-- --- 0-- B-0--- -- 0 --2- 2-- --- 2-- --- 0-- G-1-- 4-- 1-- 2- 2-- 4-- 2-- 4-- 1-- D-2-- 4-- 2-- 2- 4-- 4-- 4-- 4-- 2-- A-2-- 2-- 2-- 0- 4-- 2-- 4-- 2-- 2-- E-0-- 0-- 0-- -- 2-- 0-- 2-- 0-- 0--

mxtabs.net







О сайтеАккордыХит-парадПоискУроки ФорумыИщу песню
ПрограммыСвежачок-сПодпискаСтатьи
Яндекс.Метрика