Табулатура Strokes | Under Control гитара табулатуры уроки тексты песен Strokes текст lyrics песня аккорды песни ноты нота электрогитара струна  
   А Б В Г Д Е Ж З И К Л М Н О П Р С Т У Ф Х Ч Ш Ы Э Ю Я       Разные песни
1-9 A B C D E F G H I J K L M N O P Q R S T U V W Y Z      Все исполнители

    



группа Strokes, Табулатура песни Under Control

Группа: Strokes - другие аккорды (19),   о группе (7 статей),   диски (9),   фотографии (48)
Табулатура песни: Under Control
Просмотров: 713
Прислал: NYCgirl (system17@rambler.ru)




    
Under Control
Guitar 1 - Albert
E--9----11---9-------13--14----13---14--13--11--
B--9----11---9-------13--14----13---14--13--11--
G--10---11---10------13--15----13---15--13--11--   Part 1
D-----------------------------------------------   
A-----------------------------------------------
E-----------------------------------------------

E--4---6---6---9-----------------
B--4---4---6---6-----------------
G--5---5---6---6-----------------   Part 2
D--------------------------------
A--------------------------------
E--------------------------------

E--8---6-----13--11---9---------9--------9-----11--13--9--
B--9---7-----13--11---9---------11-------11----11--13--9--
G--8---6-----13--11---10--------11---11--11----11--13--10   Solo
D------------------------------------11------------------
A--------------------------------------------------------
E---------------------------------------------------------

E--13--11--14--13--11--9---------
B--13--11--14--13--11--9---------
G--13--11--15--13--11--10--------   Outro
D--------------------------------
A--------------------------------
E--------------------------------
Part 1 4x
Part 2 4x
Part 1 4x
Solo 2x
Part 2 4x
Part 1 4x
Outro

Guitar 2 - Nick
E--4--6--4-----8---9-----8---9----8---6----------
B--6--7--6-----9---11----9---11---9---7----------

Продолжаем грести бабос на ботах в Telegram.
Только в этот раз есть вариант автоматизировать это дело, привлекая рефералов. Вы можете заработать если »

G--6--8--6-----10--11----10--11---10--8---------- Part 1 D------------------------------------------------ A------------------------------------------------ E------------------------------------------------ E--4---6---4------------- B--4---6---6------------- G--5---6---6------------- Part 2 D------------------------ A------------------------ E------------------------ E---6---------4------- B---7---------6------- G---6---------6------- Solo D--------------------- A--------------------- E--------------------- E--8----6----9----8----6---4--------------------- B--9----7----11---9----7---6--------------------- G--10---8----11---10---8---6--------------------- Outro D------------------------------------------------ A------------------------------------------------ E------------------------------------------------ Part 1 4x Part 2 4x Part 1 4x Solo 2x Part 2 4x Part 1 4x Outro

mxtabs.net







О сайтеАккордыХит-парадПоискУроки ФорумыИщу песню
ПрограммыСвежачок-сПодпискаСтатьи
Яндекс.Метрика