Табулатура Strokes | Meet Me In The Bathroom гитара табулатуры уроки тексты песен Strokes текст lyrics песня аккорды песни ноты нота электрогитара струна  
   А Б В Г Д Е Ж З И К Л М Н О П Р С Т У Ф Х Ч Ш Ы Э Ю Я       Разные песни
1-9 A B C D E F G H I J K L M N O P Q R S T U V W Y Z      Все исполнители

    



группа Strokes, Табулатура песни Meet Me In The Bathroom

Группа: Strokes - другие аккорды (19),   о группе (7 статей),   диски (9),   фотографии (48)
Табулатура песни: Meet Me In The Bathroom
Просмотров: 814
Прислал: NYCgirl (system17@rambler.ru)




    
Meet Me In The Bathroom
Intro:
 Guitar 1
e|-----------------------------------------------------5---5---5---7-5----|
B|--8---8---8---8-10----8---8---8-6-----5---5---5---5----5---5---5-----5--|
G|----7---7---7-------7---7---7-----7-----5---5---5-----------------------| 
D|------------------------------------------------------------------------|
A|------------------------------------------------------------------------|
E|------------------------------------------------------------------------|

Verse:
 Guitar 1
e|--7-7-7-7-7-7-7-7--7-7-7-7-7-7-7-7--7-7-7-7-7-7-7-7--7-7-7-7-7-7-7-7--
B|--8-8-8-8-8-8-8-8--7-7-7-7-7-7-7-7--5-5-5-5-5-5-5-5--7-7-7-7-7-7-7-7--
G|--7-7-7-7-7-7-7-7--7-7-7-7-7-7-7-7--7-7-7-7-7-7-7-7--7-7-7-7-7-7-7-7--  [Part 1]
D|----------------------------------------------------------------------
A|----------------------------------------------------------------------
E|----------------------------------------------------------------------

e|--7-7-7-7-7-7-7-7--7-7-7-7-7-7-7-7--7-7-7-7-7-7-7-7--7-7-7-7-7-7-7-7--
B|--8-8-8-8-8-8-8-8--7-7-7-7-7-7-7-7--5-5-5-5-5-5-5-5--7-7-7-7-7-7-7-7--
G|--7-7-7-7-7-7-7-7--7-7-7-7-7-7-7-7--7-7-7-7-7-7-7-7--7-7-7-7-7-7-7-7--  "       "
D|----------------------------------------------------------------------
A|----------------------------------------------------------------------
E|----------------------------------------------------------------------

e|--8-8-8-8-8-8-8-8--8-8-8-8-8-8-8-8--8-8-8-8-8-8-8-8--8-8-8-8-8-8-8-8--8-8-8-8-8-8-8-8--8-8-8-8-8-8-8-8--
B|--8-8-8-8-8-8-8-8--7-7-7-7-7-7-7-7--8-8-8-8-8-8-8-8--7-7-7-7-7-7-7-7--8-8-8-8-8-8-8-8--7-7-7-7-7-7-7-7--
G|--7-7-7-7-7-7-7-7--7-7-7-7-7-7-7-7--7-7-7-7-7-7-7-7--7-7-7-7-7-7-7-7--7-7-7-7-7-7-7-7--7-7-7-7-7-7-7-7--  [Part 2]
D|--------------------------------------------------------------------------------------------------------
A|--------------------------------------------------------------------------------------------------------
E|--------------------------------------------------------------------------------------------------------

e|------------------------------------------------------------------------------------------------------------|
B|--10-10-10-10-10-10-10-10--10-10-10-10-10-10-10-10--10-10-10-10-10-10-10-10--10-10-10-10-10-10-10-10-10-10--|
G|--11-11-11-11-11-11-11-11--12-12-12-12-12-12-12-12--11-11-11-11-11-11-11-11--12-12-12-12-12-12-12-12-12-12--|  [Part 3]
D|--12-12-12-12-12-12-12-12--12-12-12-12-12-12-12-12--12-12-12-12-12-12-12-12--12-12-12-12-12-12-12-12-12-12--|
A|------------------------------------------------------------------------------------------------------------|
E|------------------------------------------------------------------------------------------------------------|

Guitar 2:
While Guitar 1 plays VERSE [Part 1], Guitar 2 plays: 
e|-----
B|--3--
G|--4--
D|--5--
A|--5--
E|--3--
	as backing chord.

While Guitar 1 plays VERSE [Part 2], Guitar 2 plays:
e|-----
B|--5--
G|--5--
D|--5--
A|--3--
E|-----
	as backing chord.

While Guitar 1 playes VERSE [Part 3], Guitar 2 plays:
e|-----
B|--7--
G|--7--
D|--7--
A|--5--
E|-----
	as backing chord.

Bridge 1:
 Guitar 1
e|-------------------------------|
B|-------------------------------|
G|-----5------5------5--------5--| x4

Продолжаем грести бабос на ботах в Telegram.
Только в этот раз есть вариант автоматизировать это дело, привлекая рефералов. Вы можете заработать если »

D|--7------5------4-----5--5-----| A|-------------------------------| E|-------------------------------| Guitar 2 e|-----------------------------------------------------------------------------------------------------| B|--5-5-5-5-5-5-5-5-5-5-5-5-5-5-5-5--5-5-5-5-5-5-5-5-5-5-5-5-5-5-5-5--7-7-7-7-7-7-7-7-7-7-7-7-7-7-7-7--| G|--5-5-5-5-5-5-5-5-5-5-5-5-5-5-5-5--5-5-5-5-5-5-5-5-5-5-5-5-5-5-5-5--7-7-7-7-7-7-7-7-7-7-7-7-7-7-7-7--| D|--5-5-5-5-5-5-5-5-5-5-5-5-5-5-5-5--7-7-7-7-7-7-7-7-7-7-7-7-7-7-7-7--7-7-7-7-7-7-7-7-7-7-7-7-7-7-7-7--| A|--3-3-3-3-3-3-3-3-3-3-3-3-3-3-3-3--7-7-7-7-7-7-7-7-7-7-7-7-7-7-7-7--5-5-5-5-5-5-5-5-5-5-5-5-5-5-5-5--| E|-----------------------------------5-5-5-5-5-5-5-5-5-5-5-5-5-5-5-5-----------------------------------| Bridge 2: Guitar 2 *-Not too sure about this bit. Could be someone playing a G barr chord.-* e|---7--7--7--7--7--7--7--7--7-7-7-7-7-7-7-7--7-7-7-7-7-7-7-7--7-7-7-7-7-7-7-7--| B|---8--8--8--8--8--8--8--8--7-7-7-7-7-7-7-7--5-5-5-5-5-5-5-5--7-7-7-7-7-7-7-7--| G|---7--7--7--7--7--7--7--7--7-7-7-7-7-7-7-7--7-7-7-7-7-7-7-7--7-7-7-7-7-7-7-7--| x2 D|---9--9--9--9--9--9--9--9--9-9-9-9-9-9-9-9--x-x-x-x-x-x-x-x--7-7-7-7-7-7-7-7--| A|--10-10-10-10-10-10-10-10--9-9-9-9-9-9-9-9--7-7-7-7-7-7-7-7--5-5-5-5-5-5-5-5--| E|------------------------------------------------------------------------------| Chorus: Guitar 1 e|-----------------------------------------------------5---5---5---7-5----| B|--8---8---8---8-10----8---8---8-6-----5---5---5---5----5---5---5-----5--| G|----7---7---7-------7---7---7-----7-----5---5---5-----------------------| x4 D|------------------------------------------------------------------------| A|------------------------------------------------------------------------| E|------------------------------------------------------------------------| Guitar 2 e|--3-3-3-3-3-3-3--3-3-3-3-3-3-3-3-3--/5-5-5-5-5-7---8--8--8--8--8--8--8--8--8--| B|--3-3-3-3-3-3-3--3-3-3-3-3-3-3-3-3--/5-5-5-5-5-5---8--8--8--8--8--8--8--8--8--| G|--4-4-4-4-4-4-4--4-4-4-4-4-4-4-4-4--/5-5-5-5-5-5---9--9--9--9--9--9--9--9--9--| x4 D|--5-5-5-5-5-5-5--3-3-3-3-3-3-3-3-3--/5-5-5-5-5-5--10-10-10-10-10-10-10-10-10--| A|--5-5-5-5-5-5-5--5-5-5-5-5-5-5-5-5----------------10-10-10-10-10-10-10-10-10--| E|--3-3-3-3-3-3-3--3-3-3-3-3-3-3-3-3-----------------8--8--8--8--8--8--8--8--8--| After playing the CHORUS, go back to the VERSE. After playing the VERSE and BRIDGE 1, go to the CHORUS again. In the song you will notice, the CHORUS starts (the 2nd time through) with Guitars 1 & 2. Once finished with the CHORUS, play the ENDING/OUTRO: Ending/Outro: Guitar 1 e|----------------------| B|--8----7----5/8----7--| G|----------------------| D|----------------------| A|----------------------| E|----------------------| Guitar 2 e|--------------------------| B|--0------0------0------0--| G|--4------4------4------4--| D|--5------5------5------5--| A|--5------5------5------5--| E|--3------3------3------3--| Any corrections, additions, and other such things, email - backslider03@hotmail.com *-The 2nd chord Guitar 2 plays in the CHORUS(kind of a C chord with an A note included) can be substituted for: e|----------------------| B|--/10-10-10-10-10-12--| G|--/-9--9--9--9--9--9--| D|--/10-10-10-10-10-10--| A|----------------------| E|----------------------| -*.

mxtabs.net







О сайтеАккордыХит-парадПоискУроки ФорумыИщу песню
ПрограммыСвежачок-сПодпискаСтатьи
Яндекс.Метрика