Табулатура Strokes | Between Love & Hate гитара табулатуры уроки тексты песен Strokes текст lyrics песня аккорды песни ноты нота электрогитара струна  
   А Б В Г Д Е Ж З И К Л М Н О П Р С Т У Ф Х Ч Ш Ы Э Ю Я       Разные песни
1-9 A B C D E F G H I J K L M N O P Q R S T U V W Y Z      Все исполнители

    



группа Strokes, Табулатура песни Between Love & Hate

Группа: Strokes - другие аккорды (19),   о группе (7 статей),   диски (9),   фотографии (48)
Табулатура песни: Between Love & Hate
Просмотров: 497
Прислал: NYCgirl (system17@rambler.ru)




    
Between Love & Hate 
  Intro
E|-------------|
B|-------------|
G|-------------|
D|-------------|
A|-12-12-12-12-|
E|-------------|
  
  Riff 1
E|--------------------------------------------------------------|
B|------10--------10--------10--------10--------10--------10----|
G|----9----9----9----9----9----9----9----9----9----9----9----9--|
D|-11--------11--------11--------11--------11--------11---------|
A|--------------------------------------------------------------|
E|--------------------------------------------------------------|
  
  Riff 2		Riff 3
E|---------------------|---------------------------------|
B|-----10-------10-----|-----7-------7-------7------7----|
G|---9----9---9----9---|---7---7---7---7---7---7--7---7--|
D|-9--------9----------|-9-------9-------9------9--------|
A|---------------------|---------------------------------|
E|---------------------|---------------------------------|
  Riff 4
E|----------------------------------------------|
B|------9-------9--------9-------9--------9-----|
G|----9--9----9---9----9--9----9---9----9---9---|

Продолжаем грести бабос на ботах в Telegram.
Только в этот раз есть вариант автоматизировать это дело, привлекая рефералов. Вы можете заработать если »

D|-11------11-------11------11-------11---------| A|----------------------------------------------| E|----------------------------------------------| Riff 5 E|---------------------------------------| B|---------------------------------------| G|--9-9-9-9-9-9-9--14-14-14-14-14-14-14--| D|--7-7-7-7-7-7-7--12-12-12-12-12-12-12--| A|---------------------------------------| E|---------------------------------------| Riff 6 E|------------------------------------------------------7---7---7---7-----| B|--10---10---10---10---9---9---9---9---7---7---7---7-----9---9---9---9---| G|-----9----9----9----9---9---9---9---9---7---7---7---7-------------------| D|------------------------------------------------------------------------| A|------------------------------------------------------------------------| E|------------------------------------------------------------------------| Solo (I'm not a good solo player so I don't tab solos, but i think this is how it starts) E|-------------------------------------------| B|-----5-----5-----5-----5-----5----5--5/6-6-| G|-5h6---5h6---5h6---5h6---5h6--5h6----------| D|-------------------------------------------| A|-------------------------------------------| E|-------------------------------------------|

mxtabs.net







О сайтеАккордыХит-парадПоискУроки ФорумыИщу песню
ПрограммыСвежачок-сПодпискаСтатьи
Яндекс.Метрика