Табулатура Strokes | Automatic Stop гитара табулатуры уроки тексты песен Strokes текст lyrics песня аккорды песни ноты нота электрогитара струна  
   А Б В Г Д Е Ж З И К Л М Н О П Р С Т У Ф Х Ч Ш Ы Э Ю Я       Разные песни
1-9 A B C D E F G H I J K L M N O P Q R S T U V W Y Z      Все исполнители

    



группа Strokes, Табулатура песни Automatic Stop

Группа: Strokes - другие аккорды (19),   о группе (7 статей),   диски (9),   фотографии (48)
Табулатура песни: Automatic Stop
Просмотров: 1030
Прислал: NYCgirl (system17@rambler.ru)




    
Tablature explanation:
h = hammer on
p = pull off
^ = bend full
b = bend half
r = release bend
/ = slide up
 = slide down
AUTOMATIC STOP:
E|-9-9--9-9---1111-1111?-9-9--9-9---1111-1111------| 
B|-1111-1111--1111-1111?-1111-1111--1111-1111------|  
G|-1111-1111--1111-1111--1010-1010-----------------| X2
D|-------------------------------------------------|  
A|-------------------------------------------------|  
E|-------------------------------------------------|
E|-9-9--9-9--9-9--9-9---1111-1111-1111-1111--------|
B|-1111-1111-1111-1111--1111-1111-1111-1111--------|
G|-1111-1111-1111-1111--1111-1111-1111-1111--------|  
D|-------------------------------------------------|
A|-------------------------------------------------|  
E|-------------------------------------------------|
	                                             X2
E|-9-9--9-9--9-9--9-9?-9-9--9-9--9-9--9-9----------| 
B|-1111-1111-1111-1111-1111-1111-1111-1111---------|
G|-1010-1010-1010-1010-1010-1010-1010-1010---------|  
D|-------------------------------------------------|
A|-------------------------------------------------|  
E|-------------------------------------------------|
E|-------------------------------------------------| 
B|-------------------------------------------------|
G|-------------------------------------------------|  
D|-----------1010101010888888----------------------|
A|-9999999999------------------99999---------------|  
E|-------------------------------------------------|
E|-------------------------------------------------| 
B|-------------------------------------------------|
G|-------------------------------------------------|  
D|-----------888888777777--------------------------|
A|-8888888888------------88888---------------------|  
E|-------------------------------------------------|
E|-------------------------------------------------| 
B|-------------------------------------------------|
G|-------------------------------------------------|  
D|-----------10101010108888888---------------------|
A|-9999999999-----------------99999888888888-------|  
E|-------------------------------------------------|
E|----------------------------------------------------| 
B|-11--11----9--9--9----7-7-7-7-7-7---9--9--------9---|
G|---11--11---10-10-10---8-8-8-8-8-8---11-11-10-11-11-|  
D|----------------------------------------------------|
A|----------------------------------------------------|  
E|----------------------------------------------------|
                                                       X2
E|-------------------------------------------------| 
B|-9--9--9--9--9--9--------------------------------|
G|--11-11-11-11-11-11------------------------------|  
D|-------------------------------------------------|
A|-------------------------------------------------|  
E|-------------------------------------------------|
E|-9-9--9-9---1111-1111?-9-9--9-9---1111-1111------| 
B|-1111-1111--1111-1111?-1111-1111--1111-1111------|

Продолжаем грести бабос на ботах в Telegram.
Только в этот раз есть вариант автоматизировать это дело, привлекая рефералов. Вы можете заработать если »

G|-1111-1111--1111-1111--1010-1010-----------------| D|-------------------------------------------------| A|-------------------------------------------------| E|-------------------------------------------------| E|-9-9--9-9---1111-1111?-9-9--9-9---1111-1111------| B|-1111-1111--1111-1111?-1111-1111--1111-1111------| G|-1111-1111--1111-1111--1010-1010-----------------| D|-------------------------------------------------| A|-------------------------------------------------| E|-------------------------------------------------| E|-------------------------------------------------| B|-------------------------------------------------| G|-------------------------------------------------| D|-----------1010101010888888----------------------| A|-9999999999------------------99999---------------| E|-------------------------------------------------| E|-------------------------------------------------| B|-------------------------------------------------| G|-------------------------------------------------| D|-----------888888777777--------------------------| A|-8888888888------------88888---------------------| E|-------------------------------------------------| E|-------------------------------------------------| B|-------------------------------------------------| G|-------------------------------------------------| D|-----------10101010108888888---------------------| A|-9999999999-----------------99999888888888-------| E|------------------------------------------9999888| E|-9-9--9-9--9-9--9-9---1111-1111-1111-1111--------| B|-1111-1111-1111-1111--1111-1111-1111-1111--------| G|-1111-1111-1111-1111--1111-1111-1111-1111--------| D|-------------------------------------------------| A|-------------------------------------------------| E|-------------------------------------------------| E|-9-9--9-9--9-9--9-9?-9-9--9-9--9-9--9-9----------| B|-1111-1111-1111-1111-1111-1111-1111-1111---------| G|-1010-1010-1010-1010-1010-1010-1010-1010---------| D|-------------------------------------------------| A|-------------------------------------------------| E|-------------------------------------------------| E|-------------------------------------------------------| B|-11--11--11---9--9--9----7-7-7-7-7-7---9--9--------9---| G|---11--11--11--10-10-10---8-8-8-8-8-8---11-11-10-11-11-| D|-------------------------------------------------------| A|-------------------------------------------------------| E|-------------------------------------------------------| X2 E|-------------------------------------------------| B|-9--9--9--9--9--9--------------------------------| G|--11-11-11-11-11-11------------------------------| D|-------------------------------------------------| A|-------------------------------------------------| E|-------------------------------------------------|

mxtabs.net







О сайтеАккордыХит-парадПоискУроки ФорумыИщу песню
ПрограммыСвежачок-сПодпискаСтатьи
Яндекс.Метрика