Табулатура H.I.M. | Enjoy The Silence гитара табулатуры уроки тексты песен H.I.M. текст lyrics песня аккорды песни ноты нота электрогитара струна  
   А Б В Г Д Е Ж З И К Л М Н О П Р С Т У Ф Х Ч Ш Ы Э Ю Я       Разные песни
1-9 A B C D E F G H I J K L M N O P Q R S T U V W Y Z      Все исполнители in english

    



группа H.I.M., Табулатура песни Enjoy The Silence

Группа: H.I.M. - другие аккорды (273),   о группе (2 статей),   диски (5),   фотографии (82)
Табулатура песни: Enjoy The Silence
Просмотров: 969
Подобрал: TRianel (trianel@rambler.ru)




    
H.I.M.
"Enjoy The Silence"
-------------------
 INTRO KEYBOARDS & DRUMS (8 TIMES)
    KEYBOARD
    F#                        A                       4x
E||--------------------------|--------------------------||
B||--------------------------|--------------------------||
G||*-------------------------|-------------------------*||
D||*--4----4--4--4--4--4--4--|--7----7--7--7--7--7--7--*||
A||---4----4--4--4--4--4--4--|--7----7--7--7--7--7--7---||
E||---2----2--2--2--2--2--2--|--5----5--5--5--5--5--5---||

  THEME
  F#                         A
|--------------------------|--------------------------|
|--------------------------|--------------------------|
|--------------------------|--------------------------|
|--4--4--4--4--4--4--4--4--|--7--7--7--7--7--7--7--7--|
|--4--4--4--4--4--4--4--4--|--7--7--7--7--7--7--7--7--|
|--2--2--2--2--2--2--2--2--|--5--5--5--5--5--5--5--5--|
                                 Verse1
    D                            F#
|----------------------------||--------------------------|
|----------------------------||--------------------------|
|*--7--7--7--7--7--7--7--7--*||*-------------------------|
|*--7--7--7--7--7--7--7--7--*||*-4--4--4--4--4--4--4--4--|
|---5--5--5--5--5--5--5--5---||--4--4--4--4--4--4--4--4--|
|----------------------------||--2--2--2--2--2--2--2--2--|
					  |----------------------|
  A                          D
|--------------------------|--------------------------|
|--------------------------|--------------------------|
|--------------------------|--7--7--7--7--7--7--7--7--|
|--7--7--7--7--7--7--7--7--|--7--7--7--7--7--7--7--7--|
|--7--7--7--7--7--7--7--7--|--5--5--5--5--5--5--5--5--|
|--5--5--5--5--5--5--5--5--|--------------------------|
  |--------------------------------------------------|
                             Chorus
 (Guitar Muted Only 1 time)  B                   D
|--------------------------|------------------|-------------------|
|--------------------------|------------------|-------------------|
|--7--7--7--7--7--7--7--7-*|------------------|-------------------|
|--7--7--7--7--7--7--7--7-*|--9---------------|--12---------------|
|--5--5--5--5--5--5--5--5--|--9---------------|--12---------------|
|--------------------------|--7---------------|--10---------------|
  |-----------------------|
  F#                  E                   B
|-------------------|-------------------|-------------------|
|-------------------|-------------------|-------------------|
|-------------------|-------------------|-------------------|
|--4----------------|--2----------------|--9----------------|
|--4----------------|--2----------------|--9----------------|
|--2----------------|-------------------|--7----------------|
  D                    F#               F
|--------------------|----------------|-------------------------|
|--------------------|----------------|-------------------------|
|--------------------|----------------|-------------------------|
|--12----------------|--4-------------|--3----3--3--3--3--3--3--|
|--12----------------|--4-------------|--3----3--3--3--3--3--3--|
|--10----------------|--2-------------|--1----1--1--1--1--1--1--|

|-------------------------|--------------------------|--------|
|-------------------------|--------------------------|--------|
|-------------------------|--------------------------|--------|
|--2----2--2--2--2--2--2--|--2--2--2--2--2--2--2--2--|-\---\--|
|--2----2--2--2--2--2--2--|--2--2--2--2--2--2--2--2--|-\---\--|
|--0----0--0--0--0--0--0--|--0--0--0--0--0--0--0--0--|-\---\--|

|------------------|
|------------------|
|------------------|
|---\-------\------|
|---\-------\------|
|---\-------\------|
   KEYBOARD
     F#                        A                       4x
E||--------------------------|--------------------------||
B||--------------------------|--------------------------||
G||*-------------------------|-------------------------*||
D||*--4----4--4--4--4--4--4--|--7----7--7--7--7--7--7--*||
A||---4----4--4--4--4--4--4--|--7----7--7--7--7--7--7---||
E||---2----2--2--2--2--2--2--|--5----5--5--5--5--5--5---||
  THEME
  F#                         A
|--------------------------|--------------------------|
|--------------------------|--------------------------|
|--------------------------|--------------------------|
|--4--4--4--4--4--4--4--4--|--7--7--7--7--7--7--7--7--|
|--4--4--4--4--4--4--4--4--|--7--7--7--7--7--7--7--7--|
|--2--2--2--2--2--2--2--2--|--5--5--5--5--5--5--5--5--|
                                 Verse2
    D                            F#
|----------------------------||--------------------------|
|----------------------------||--------------------------|
|*--7--7--7--7--7--7--7--7--*||*-------------------------|
|*--7--7--7--7--7--7--7--7--*||*-4--4--4--4--4--4--4--4--|
|---5--5--5--5--5--5--5--5---||--4--4--4--4--4--4--4--4--|
|----------------------------||--2--2--2--2--2--2--2--2--|
                                |-----------------------|
  A                          D
|--------------------------|--------------------------|
|--------------------------|--------------------------|
|--------------------------|--7--7--7--7--7--7--7--7--|
|--7--7--7--7--7--7--7--7--|--7--7--7--7--7--7--7--7--|
|--7--7--7--7--7--7--7--7--|--5--5--5--5--5--5--5--5--|
|--5--5--5--5--5--5--5--5--|--------------------------|
  |--------------------------------------------------|
                             Chorus
 (Guitar Muted Only 1 time)  B                   D
|--------------------------|------------------|-------------------|
|--------------------------|------------------|-------------------|
|--7--7--7--7--7--7--7--7-*|------------------|-------------------|
|--7--7--7--7--7--7--7--7-*|--9---------------|--12---------------|
|--5--5--5--5--5--5--5--5--|--9---------------|--12---------------|
|--------------------------|--7---------------|--10---------------|
  |-----------------------|
  F#                  E                   B
|-------------------|-------------------|-------------------|
|-------------------|-------------------|-------------------|
|-------------------|-------------------|-------------------|
|--4----------------|--2----------------|--9----------------|
|--4----------------|--2----------------|--9----------------|
|--2----------------|-------------------|--7----------------|
  D                    F#               F
|--------------------|----------------|-------------------------|
|--------------------|----------------|-------------------------|
|--------------------|----------------|-------------------------|
|--12----------------|--4-------------|--3----3--3--3--3--3--3--|
|--12----------------|--4-------------|--3----3--3--3--3--3--3--|
|--10----------------|--2-------------|--1----1--1--1--1--1--1--|

|-------------------------|--------------------------|
|-------------------------|--------------------------|
|-------------------------|--------------------------|
|--2----2--2--2--2--2--2--|--2--2--2--2--2--2--2--2--|
|--2----2--2--2--2--2--2--|--2--2--2--2--2--2--2--2--|
|--0----0--0--0--0--0--0--|--0--0--0--0--0--0--0--0--|
 KEY
 (This is The Guitar SOLO )
|------------------|-------------------||---------------------||
|------------------|-------------------||---------------------||
|------------------|-------------------||*-------------------*||
|-------------6~---|-----7~------------||*-------------------*||
|-----9~-----------|-------------7~----||------7~------4~-----||
|--7-------7-------|--7-------5--------||---5-------5---------||

|-------------------|-------------------||---------------------||
|-------------------|-------------------||---------------------||
|-------------------|-------------------||*-------------------*||
|-------------6~----|-----7~------------||*-------------------*||
|-----9~------------|-------------7~----||------7~------4~-----||
|--7-------7--------|--7-------5--------||---5-------5---------||

|--------------------|--------------------||-------------------|
|--------------------|--------------------||-------------------|
|*-------------------|-------------------*||-------------------|
|*-------------6~----|-------------------*||-------------------|
|------9~------------|-----9~------7~-----||-----5~------4~----|
|---7-------7--------|--7-------7---------||--5-------5--------|

|----------------------|----------------------|--------------||
|----------------------|----------------------|--------------||
|----------------------|----------------------|--------------||
|----------------------|----------------------|--12\---------||
|-----9~------7~-------|-----5~------4~-------|--12\---------||
|--5-------5-----------|--5-------5-----------|--12\---------||
  Chorus
   B                   D
|------------------|-------------------|
|------------------|-------------------|
|------------------|-------------------|
|--9---------------|--12---------------|
|--9---------------|--12---------------|
|--7---------------|--10---------------|
  F#                  E                   B
|-------------------|-------------------|-------------------|
|-------------------|-------------------|-------------------|
|-------------------|-------------------|-------------------|
|--4----------------|--2----------------|--9----------------|
|--4----------------|--2----------------|--9----------------|
|--2----------------|-------------------|--7----------------|
  D                    F#               F
|--------------------|----------------|-------------------------|
|--------------------|----------------|-------------------------|
|--------------------|----------------|-------------------------|
|--12----------------|--4-------------|--3----3--3--3--3--3--3--|
|--12----------------|--4-------------|--3----3--3--3--3--3--3--|
|--10----------------|--2-------------|--1----1--1--1--1--1--1--|
  Chorus
   B                   D
|------------------|-------------------|
|------------------|-------------------|
|------------------|-------------------|
|--9---------------|--12---------------|
|--9---------------|--12---------------|
|--7---------------|--10---------------|
  F#                  E                   B
|-------------------|-------------------|-------------------|
|-------------------|-------------------|-------------------|
|-------------------|-------------------|-------------------|
|--4----------------|--2----------------|--9----------------|
|--4----------------|--2----------------|--9----------------|
|--2----------------|-------------------|--7----------------|
  D                    F#               F
|--------------------|----------------|-------------------------|
|--------------------|----------------|-------------------------|
|--------------------|----------------|-------------------------|
|--12----------------|--4-------------|--3----3--3--3--3--3--3--|
|--12----------------|--4-------------|--3----3--3--3--3--3--3--|
|--10----------------|--2-------------|--1----1--1--1--1--1--1--|

|-------------------------|--------------------------|
|-------------------------|--------------------------|
|-------------------------|--------------------------|
|--2----2--2--2--2--2--2--|--2--2--2--2--2--2--2--2--|
|--2----2--2--2--2--2--2--|--2--2--2--2--2--2--2--2--|
|--0----0--0--0--0--0--0--|--0--0--0--0--0--0--0--0--|
 SOLO KEYBOARD
|-----------|----------|---------|---------|--------|---------|
|-----------|----------|---------|---------|--------|---------|
|-----------|----------|---------|---------|--------|---------|

Продолжаем грести бабос на ботах в Telegram.
Только в этот раз есть вариант автоматизировать это дело, привлекая рефералов. Вы можете заработать если »

|-----------|----------|---------|---------|--------|---------| |-----------|----------|---------|---------|--------|---------| |-----------|----------|---------|---------|--------|---------| |------------|---------------| |------------|---------------| |------------|---------------| |------------|---------------| |------------|---------------| |------------|---------------| Chorus B D |------------------|-------------------| |------------------|-------------------| |------------------|-------------------| |--9---------------|--12---------------| |--9---------------|--12---------------| |--7---------------|--10---------------| F# E B |-------------------|-------------------|-------------------| |-------------------|-------------------|-------------------| |-------------------|-------------------|-------------------| |--4----------------|--2----------------|--9----------------| |--4----------------|--2----------------|--9----------------| |--2----------------|-------------------|--7----------------| D F# F |--------------------|----------------|-------------------------| |--------------------|----------------|-------------------------| |--------------------|----------------|-------------------------| |--12----------------|--4-------------|--3----3--3--3--3--3--3--| |--12----------------|--4-------------|--3----3--3--3--3--3--3--| |--10----------------|--2-------------|--1----1--1--1--1--1--1--| Chorus End B D |------------------|-------------------| |------------------|-------------------| |------------------|-------------------| |--9---------------|--12---------------| |--9---------------|--12---------------| |--7---------------|--10---------------| F# E B |-------------------|-------------------|-------------------| |-------------------|-------------------|-------------------| |-------------------|-------------------|-------------------| |--4----------------|--2----------------|--9----------------| |--4----------------|--2----------------|--9----------------| |--2----------------|-------------------|--7----------------| D F# F |--------------------|----------------|-------------------------| |--------------------|----------------|-------------------------| |--------------------|----------------|-------------------------| |--12----------------|--4-------------|--3----3--3--3--3--3--3--| |--12----------------|--4-------------|--3----3--3--3--3--3--3--| |--10----------------|--2-------------|--1----1--1--1--1--1--1--| |-------------------------|--------------------------|--------| |-------------------------|--------------------------|--------| |-------------------------|--------------------------|--------| |--2----2--2--2--2--2--2--|--2--2--2--2--2--2--2--2--|--4-----| |--2----2--2--2--2--2--2--|--2--2--2--2--2--2--2--2--|--4-----| |--0----0--0--0--0--0--0--|--0--0--0--0--0--0--0--0--|--2-----| KEYBOARD |-----------|-----------|-----------|-----------|-----------| |-----------|-----------|-----------|-----------|-----------| |-----------|------2----|-----------|-----2-----|-----------| |---4-------|-----------|-----4-----|-----------|-----4-----| |-----------|-----------|-----------|-----------|-----------| |-----------|-----------|-----------|-----------|-----------| | | |-5-14-5-12-|-5-14-5-16-|-5-14-5-12-|-5-14-5-16-|-5-14-5-12-| |-----------|-----------|-----------|-----------|-----------| |-----------|-----------|-----------|-----------|-----------| |-----------|-----------|-----------|-----------|-----------| |-----------|-----------|-----------|-----------|-----------| |-----------|-----------|-----------|-----------|-----------| |----------|-----------|----------|-----------| |----------|-----------|----------|-----------| |----------|------2----|----------|-----2-----| |---4------|-----------|-----4----|-----------| |----------|-----------|----------|-----------| |----------|-----------|----------|-----------| | | |-5-10-5-9-|-5-14-5-12-|-5-10-5-9-|-5-14-5-12-| |----------|-----------|----------|-----------| |----------|-----------|----------|-----------| |----------|-----------|----------|-----------| |----------|-----------|----------|-----------| |----------|-----------|----------|-----------| THEME |----|---|-----||---|---|---|------| |----|---|-----||---|---|---|------| |----|-2-|*---*||---|-2-|---|------| |--4-|---|*-0-*||-4-|---|-0-|------| |----|---|-----||---|---|---|------| |----|---|-----||---|---|---|------| |---|---|---|---|---|---|---|---|---|---|---| |---|---|---|---|---|---|---|---|---|---|---| |---|---|---|---|---|---|---|---|---|---|---| |---|-0-|-4-|-2-|---|-0-|-4-|-3-|-2-|---|---| |-2-|---|---|---|-2-|---|---|---|---|---|---| |---|---|---|---|---|---|---|---|---|---|---| KEY |-----------|-----------|----------|----------|-----------| |-----------|-----------|----------|----------|-----------| |-----------|-----------|----------|----------|-----------| |-----------|-----0-----|----4-----|----2-----|-----------| |-----2-----|-----------|----------|----------|------2----| |-----------|-----------|----------|----------|-----------| | | |-7-14-7-16-|-7-17-7-12-|-5-12-5-9-|-5-12-5-9-|-7-14-7-16-| |-----------|-----------|----------|----------|-----------| |-----------|-----------|----------|----------|-----------| |-----------|-----------|----------|----------|-----------| |-----------|-----------|----------|----------|-----------| |-----------|-----------|----------|----------|-----------| |---------|----------|----------|-----------|-----------|-----------| |---------|----------|----------|-----------|-----------|-----------| |---------|----------|----------|-----------|-----------|-----------| |---0-----|-----4----|----2-----|-----------|----0------|-----4-----| |---------|----------|----------|-----2-----|-----------|-----------| |---------|----------|----------|-----------|-----------|-----------| | | |7-17-7-12|-5-12-5-9-|-5-12-5-9-|-7-14-7-16-|-7-14-7-12-|-7-14-7-16-| |---------|----------|----------|-----------|-----------|-----------| |---------|----------|----------|-----------|-----------|-----------| |---------|----------|----------|-----------|-----------|-----------| |---------|----------|----------|-----------|-----------|-----------| |---------|----------|----------|-----------|-----------|-----------| |-----------|----------|-----------|----------|-----------| |-----------|----------|-----------|----------|-----------| |-----------|----------|-----------|----------|-----------| |----0------|----4-----|-----2-----|----4-----|-----2-----| |-----------|----------|-----------|----------|-----------| |-----------|----------|-----------|----------|-----------| | | |-7-14-7-12-|-5-10-5-9-|-5-14-5-12-|-5-10-5-9-|-5-14-5-12-| |-----------|----------|-----------|----------|-----------| |-----------|----------|-----------|----------|-----------| |-----------|----------|-----------|----------|-----------| |-----------|----------|-----------|----------|-----------| |-----------|----------|-----------|----------|-----------| SOLO KEYBOARD |-----------|-----------|----------|----------|-----------| |-----------|-----------|----------|----------|-----------| |-----------|-----------|----------|----------|-----------| |-----------|-----0-----|----4-----|----2-----|-----------| |-----2-----|-----------|----------|----------|------2----| |-----------|-----------|----------|----------|-----------| | | |-7-14-7-16-|-7-17-7-12-|-5-12-5-9-| |-----------|-----------|----------| |-----------|-----------|----------| |-----------|-----------|----------| |-----------|-----------|----------| |-----------|-----------|----------| |----------|-----------|-----------|----------|----------| |----------|-----------|-----------|----------|----------| |----------|-----------|-----------|----------|----------| |----2-----|-----------|------0----|-----4----|----2-----| |----------|------2----|-----------|----------|----------| |----------|-----------|-----------|----------|----------| | | |-5-12-5-9-|-7-14-7-16-|-7-17-7-12-|-5-12-5-9-|-5-12-5-9-| |----------|-----------|-----------|----------|----------| |----------|-----------|-----------|----------|----------| |----------|-----------|-----------|----------|----------| |----------|-----------|-----------|----------|----------| |----------|-----------|-----------|----------|----------| Verse1 Words like violence break the silence come crashing in into my little world painful to me pierce right trhough me can't you understand oh my little girl Chorus All I ever wanted all i ever needed is here in my arms words are very unnecessary they can only do harm Verse2 Vows are spoken to be broken feelings are intense words are trivial pleasure remain so does the pain words are meaningless and forgettable Chorus SOLO Chorus x 2 SOLO KEYBOARD Chorus Chorus End All I ever wanted and all I ever needed is here in my arms here in my arms uohhh .cause they here in my arms.








О сайтеАккордыХит-парадПоискУроки ФорумыИщу песню
ПрограммыСвежачок-сПодпискаСтатьи
Яндекс.Метрика