Аккорды H.I.M. | Rebel Yell гитара табулатуры уроки тексты песен H.I.M. текст lyrics песня аккорды песни ноты нота электрогитара струна  
   А Б В Г Д Е Ж З И К Л М Н О П Р С Т У Ф Х Ч Ш Ы Э Ю Я       Разные песни
1-9 A B C D E F G H I J K L M N O P Q R S T U V W Y Z      Все исполнители in english

    



группа H.I.M., Аккорды песни Rebel Yell

Группа: H.I.M. - другие аккорды (273),   о группе (2 статей),   диски (5),   фотографии (82)
Аккорды песни: Rebel Yell
Просмотров: 2065
Подобрал: TRianel (trianel@rambler.ru)




    
H.I.M.
"Rebel Yell"
------------
                            3x  KEYBOARD INTRO
E||--------------------------||------------------------|
B||--------------------------||------------------------|
G||*------------------------*||------------------------|
D||*------------------7h-9--*||------------------2--4--|
A||-----------9----9---------||----------9----9--2--4--|
E||---7----7-----------------||--7----7----------0--2--|
|---------------------------|--------------------------|
|---------------------------|--------------------------|
|---------------------------|--------------------------|
|--5--5--5--5----5--5--5----|--4--4--4--4----4--4--4---|
|--5--5--5--5----5--5--5----|--4--4--4--4----4--4--4---|
|--3--3--3--3----3--3--3----|--2--2--2--2----2--2--2---|
     |----|     |-|              |----|     |-|
|---------------------------|--------------------------|
|---------------------------|--------------------------|
|---------------------------|--------------------------|
|--2--2--2--2----2--2--2----|--2--2--2--2----2--2--4---|
|--2--2--2--2----2--2--2----|--2--2--2--2----2--2--4---|
|--0--0--0--0----0--0--0----|--0--0--0--0----0--0--2---|
     |----|     |-|              |----|     |-|
|---------------------------|--------------------------|
|---------------------------|--------------------------|
|---------------------------|--------------------------|
|--5--5--5--5----5--5--5----|--4--4--4--4----4--4--4---|
|--5--5--5--5----5--5--5----|--4--4--4--4----4--4--4---|
|--3--3--3--3----3--3--3----|--2--2--2--2----2--2--2---|
     |----|     |-|              |----|     |-|
                                                       STRINGS
|---------------------------|--------------------------|-----|----|
|---------------------------|--------------------------|-----|----|
|---------------------------|----------------7---------|-----|----|
|--2--2--2--2----2--2--2----|--2--2--2--2----7----7----|--9~-|----|
|--2--2--2--2----2--2--2----|--2--2--2--2----5----7----|--9~-|----|
|--0--0--0--0----0--0--0----|--0--0--0--0---------5----|--7~-|----|
     |----|     |-|              |----|
|----------19\-------|------------------|
|----------19\-------|------------------|
|----------19\-------|------------------|
|----------19\-------|------------------|
|----------19\-------|------------------|
|----------19\-------|------------------|
  Verse1
|--------------------|--------------------|---------------------|
|--3--3-----------3--|--3-----------------|--3--3------------3--|
|--4--4--4--4--4--4--|--4--4--4--4--4--4--|--4--4---4--4--4--4--|
|--4--4--4--4--4--4--|--4--4--4--4--4--4--|--4--4---4--4--4--4--|
|--------------------|--------------------|---------------------|
|--------------------|--------------------|---------------------|
  KEYBOARD
|--------------------|----------------------|--------------------|
|--3-----------------|--3---3------------3--|--3-----------------|
|--4--4--4--4--4--4--|--2---2---2--2--2--2--|--2--2--2--2--2--2--|
|--4--4--4--4--4--4--|--2---2---2--2--2--2--|--2--2--2--2--2--2--|
|--------------------|----------------------|--------------------|
|--------------------|----------------------|--------------------|
|---------------------|---------------------|----------------------|
|--3--3------------3--|--3--3---------------|--3--3-------------3--|
|--0--0---0--0--0--0--|--0--0---------------|--4--4----4--4--4--4--|
|--0--0---0--0--0--0--|--0--0---7--7--------|--4--4----4--4--4--4--|
|---------------------|---------5--5--7--7--|----------------------|
|---------------------|---------------5--5--|----------------------|
                                            KEYBOARD
|--------------------|--------------------|--------------------|
|--3-----------------|--3--3-----------3--|--3-----------------|
|--4--4--4--4--4--4--|--4--4--4--4--4--4--|--4--4--4--4--4--4--|
|--4--4--4--4--4--4--|--4--4--4--4--4--4--|--4--4--4--4--4--4--|
|--------------------|--------------------|--------------------|
|--------------------|--------------------|--------------------|
|--------------------|--------------------|--------------------|
|--3--3-----------3--|--3-----------------|--3--3-----------3--|
|--2--2--2--2--2--2--|--2--2--2--2--2--2--|--0--0--0--0--0--0--|
|--2--2--2--2--2--2--|--2--2--2--2--2--2--|--0--0--0--0--0--0--|
|--------------------|--------------------|--------------------|
|--------------------|--------------------|--------------------|
|----------------------|
|----3----3------------|
|----0----0------------|
|----0----0--7---------|
|------------5----7----|
|-----------------5----|
  Chorus
|--------------------------|---------------------|-------------------------|
|--------------------------|---------------------|-------------------------|
|*-------------------------|---------------------|-------------------------|
|*--9---9-9--9---9-9--9--9-|---------------------|--9---9-9--9---9-9--9--9-|
|---9---9-9--9---9-9--9--9-|---------------------|--9---9-9--9---9-9--9--9-|
|---7---7-7--7---7-7--7--7-|----------5h-7p-5----|--7---7-7--7---7-7--7--7-|
       |---|    |---|                                  |---|    |---|
|---------------------|-------------------------|---------------------|
|---------------------|-------------------------|---------------------|
|---------------------|-------------------------|---------------------|
|---------------------|--7---7-7--7---7-7--7--7-|---------------------|
|---------------------|--7---7-7--7---7-7--7--7-|---------------------|
|----------5h-7p-5----|--5---5-5--5---5-5--5--5-|----------5h-7p-5----|
                            |---|    |---|
|------------------------|-----------------------||-------------------|
|------------------------|-----------------------||-------------------|
|------------------------|----------------------*||-------------------|
|--5---5-5--5---5-5------|--2----2----7---------*||--9~---------------|
|--5---5-5--5---5-5------|--2----2----5----7-----||--9~---------------|
|--3---3-3--3---3-3------|--0----0---------5-----||--7~---------------|
      |---|    |---|
|----------19\-------|------------------|
|----------19\-------|------------------|
|----------19\-------|------------------|
|----------19\-------|------------------|
|----------19\-------|------------------|
|----------19\-------|------------------|
  Verse2
|--------------------|--------------------|---------------------|
|--3--3-----------3--|--3-----------------|--3--3------------3--|
|--4--4--4--4--4--4--|--4--4--4--4--4--4--|--4--4---4--4--4--4--|
|--4--4--4--4--4--4--|--4--4--4--4--4--4--|--4--4---4--4--4--4--|
|--------------------|--------------------|---------------------|
|--------------------|--------------------|---------------------|
  KEYBOARD
|--------------------|----------------------|--------------------|
|--3-----------------|--3---3------------3--|--3-----------------|
|--4--4--4--4--4--4--|--2---2---2--2--2--2--|--2--2--2--2--2--2--|
|--4--4--4--4--4--4--|--2---2---2--2--2--2--|--2--2--2--2--2--2--|
|--------------------|----------------------|--------------------|
|--------------------|----------------------|--------------------|
|---------------------|--------------------|----------------------|
|--3--3------------3--|--3--3--------------|--3--3-------------3--|
|--0--0---0--0--0--0--|--0--0--------------|--4--4----4--4--4--4--|
|--0--0---0--0--0--0--|--0--0--7--7--------|--4--4----4--4--4--4--|
|---------------------|--------5--5--7--7--|----------------------|
|---------------------|--------------5--5--|----------------------|
                                            KEYBOARD
|--------------------|--------------------|--------------------|
|--3-----------------|--3--3-----------3--|--3-----------------|
|--4--4--4--4--4--4--|--4--4--4--4--4--4--|--4--4--4--4--4--4--|
|--4--4--4--4--4--4--|--4--4--4--4--4--4--|--4--4--4--4--4--4--|
|--------------------|--------------------|--------------------|
|--------------------|--------------------|--------------------|
|--------------------|--------------------|--------------------|
|--3--3-----------3--|--3-----------------|--3--3-----------3--|
|--2--2--2--2--2--2--|--2--2--2--2--2--2--|--0--0--0--0--0--0--|
|--2--2--2--2--2--2--|--2--2--2--2--2--2--|--0--0--0--0--0--0--|
|--------------------|--------------------|--------------------|
|--------------------|--------------------|--------------------|
|----------------------|
|----3----3------------|
|----0----0------------|
|----0----0--7---------|
|------------5----7----|
|-----------------5----|
  Chorus
|-------------------------|---------------------|-------------------------|
|-------------------------|---------------------|-------------------------|
|-------------------------|---------------------|-------------------------|
|--9---9-9--9---9-9--9--9-|---------------------|--9---9-9--9---9-9--9--9-|
|--9---9-9--9---9-9--9--9-|---------------------|--9---9-9--9---9-9--9--9-|
|--7---7-7--7---7-7--7--7-|----------5h-7p-5----|--7---7-7--7---7-7--7--7-|
      |---|    |---|                                  |---|    |---|
|---------------------|-------------------------|---------------------|
|---------------------|-------------------------|---------------------|
|---------------------|-------------------------|---------------------|
|---------------------|--7---7-7--7---7-7--7--7-|---------------------|
|---------------------|--7---7-7--7---7-7--7--7-|---------------------|
|----------5h-7p-5----|--5---5-5--5---5-5--5--5-|----------5h-7p-5----|
                            |---|    |---|
|------------------------|----------------------|-------------------------|
|------------------------|----------------------|-------------------------|
|------------------------|----------------------|-------------------------|
|--5---5-5--5---5-5------|--2----2----7---------|--9---9-9--9---9-9--9--9-|
|--5---5-5--5---5-5------|--2----2----5----7----|--9---9-9--9---9-9--9--9-|
|--3---3-3--3---3-3------|--0----0---------5----|--7---7-7--7---7-7--7--7-|
      |---|    |---|                                  |---|    |---|
|---------------------|-------------------------|---------------------|
|---------------------|-------------------------|---------------------|
|---------------------|-------------------------|---------------------|
|---------------------|--9---9-9--9---9-9--9--9-|---------------------|
|---------------------|--9---9-9--9---9-9--9--9-|---------------------|
|----------5h-7p-5----|--7---7-7--7---7-7--7--7-|----------5h-7p-5----|
                            |---|    |---|
|-------------------------|---------------------|------------------------|
|-------------------------|---------------------|------------------------|
|-------------------------|---------------------|------------------------|
|--7---7-7--7---7-7--7--7-|---------------------|--5---5-5--5---5-5------|
|--7---7-7--7---7-7--7--7-|---------------------|--5---5-5--5---5-5------|
|--5---5-5--5---5-5--5--5-|----------5h-7p-5----|--3---3-3--3---3-3------|
      |---|    |---|                                  |---|    |---|
|----------------------|
|----------------------|
|----------------------|
|----2----2----2--4----|
|----2----2----2--4----|
|----0----0----0--2----|
  KEYBOARD INTRO
|----------------------------|---------------------------|
|----------------------------|---------------------------|
|*---------------------------|---------------------------|
|*--5--5--5--5----5--5--5----|--4--4--4--4----4--4--4----|
|---5--5--5--5----5--5--5----|--4--4--4--4----4--4--4----|
|---3--3--3--3----3--3--3----|--2--2--2--2----2--2--2----|
      |----|     |-|              |----|     |-|
  Break                                                3x
|---------------------------|---------------------------||
|---------------------------|---------------------------||
|---------------------------|--------------------------*||
|--2--2--2--2----2--2--2----|--2--2--2--2----2--2--4---*||
|--2--2--2--2----2--2--2----|--2--2--2--2----2--2--4----||
|--0--0--0--0----0--0--0----|--0--0--0--0----0--0--2----||
     |----|     |-|              |----|     |-|
|---------------------------|---------------------------|
|---------------------------|---------------------------|
|---------------------------|---------------------------|
|--5--5--5--5----5--5--5----|--4--4--4--4----4--4--4----|
|--5--5--5--5----5--5--5----|--4--4--4--4----4--4--4----|
|--3--3--3--3----3--3--3----|--2--2--2--2----2--2--2----|
     |----|     |-|              |----|     |-|
                                                        INTRO
|---------------------------|--------------------------|-----|
|---------------------------|--------------------------|-----|
|---------------------------|----------------7---------|-----|
|--2--2--2--2----2--2--2----|--2--2--2--2----7----7----|--9--|
|--2--2--2--2----2--2--2----|--2--2--2--2----5----7----|--9--|
|--0--0--0--0----0--0--0----|--0--0--0--0---------5----|--7--|
     |----|     |-|              |----|
                                                SOLO
|------------|--------------|---------------||--------|
|------------|--------------|---------------||--------|
|------------|--------------|---------------||*-------|
|------------|--------------|---------------||*--9----|
|------------|--------------|---------------||---9----|
|------------|--------------|---------------||---7----|
|---------------------|------------|---------------|
|---------------------|------------|---------------|
|---------------------|------------|---------------|
|---------------------|--9---------|---------------|
|---------------------|--9---------|---------------|
|----------5h-7p-5----|--7---------|----5h-7p-5----|
|-------------------|---------------------|------|
|-------------------|---------------------|------|
|-------------------|---------------------|------|
|--7----------------|---------------------|--5---|
|--7----------------|---------------------|--5---|
|--5----------------|----------5h-7p-5----|--3---|
|-----------------------|
|-----------------------|
|----------------------*|    Bridge
|--2----2----7---------*|    BRIDGE
|--2----2----5----7-----|
|--0----0---------5-----|
				   Chorus End
                           FINAL (3. TIME)
|--19\-----------------||--------------------------|---------------------|
|--19\-----------------||--------------------------|---------------------|
|--19\-------7---------||*-------------------------|---------------------|
|--19\-------7----7----||*--9---9-9--9---9-9.-9--9-|---------------------|
|--19\-------5----7----||---9---9-9--9---9-9--9--9-|---------------------|
|--19\------------5----||---7---7-7--7---7-7--7--7-|----------5h-7p-5----|
                               |---|    |---|
|-------------------------|---------------------|-------------------------|
|-------------------------|---------------------|-------------------------|
|-------------------------|---------------------|-------------------------|
|--9---9-9--9---9-9--9--9-|---------------------|--7---7-7--7---7-7--7--7-|
|--9---9-9--9---9-9--9--9-|---------------------|--7---7-7--7---7-7--7--7-|
|--7---7-7--7---7-7--7--7-|----------5h-7p-5----|--5---5-5--5---5-5--5--5-|
      |---|    |---|                                  |---|    |---|
                                                                      4x
|---------------------|------------------------|-----------------------||
|---------------------|------------------------|-----------------------||
|---------------------|------------------------|----------------------*||
|---------------------|--5---5-5--5---5-5------|--2----2----7---------*||
|---------------------|--5---5-5--5---5-5------|--2----2----5----7-----||
|----------5h-7p-5----|--3---3-3--3---3-3------|--0----0---------5-----||
                            |---|    |---|
|-------------------||
|-------------------||
|-------------------||
|--9~---------------||
|--9~---------------||
|--7~---------------||

INTRO
                            4x
E||--------------------------||
B||--------------------------||
G||*------------------------*||
D||*------------------7h-9--*||
A||-----------9----9---------||
E||---7----7-----------------||
SOLO

E||------------------------|------------------------------|
B||------------------------|----------12~-----12~-----12~-|
G||--9b---9r---7--9--11----|------11~-----11~-----11~-----|

Продолжаем грести бабос на ботах в Telegram.
Только в этот раз есть вариант автоматизировать это дело, привлекая рефералов. Вы можете заработать если »

D||------------------------|------------------------------| A||------------------------|------------------------------| E||------------------------|------------------------------| |--------------------------|---------|--------------------------| |------12~-----17~---------|---------|--------------------------| |--11~-----11/-------------|---------|--------------------7--9--| |--------------------------|---------|--------------7--9--------| |--------------------------|-18\-----|--------7--9--------------| |--------------------------|-18\-9~--|--7/-9--------------------| |--------------|-------------------------|------------------------| |--------------|-------------------------|------------------------| |--9r---7--9~--|--------7--9--9r---7--9~-|------------------7--9--| |--------------|--7/-9-------------------|------------7--9--------| |--------------|-------------------------|------7/-9--------------| |--------------|-------------------------|------------------------| |----------------|----------------------|-------------------------| |----------------|----------------------|-------------------------| |--9r---7~-4~----|----------------------|----------------7~-------| |----------------|----------------------|--7h9p-7h9p-7h9----------| |----------------|----------------5~----|-------------------------| |----------------|--5h7p-5h7p-5h7-------|-------------------------| |----------------------12~-------|--10~-12~-12r---10~-12r-----| |--10h12p-10h12p-10h12-----------|----------------------------| |--------------------------------|----------------------------| |--------------------------------|----------------------------| |--------------------------------|----------------------------| |--------------------------------|----------------------------| |--10~-12~-12r---10~-12r-----|----------------------------| |----------------------------|--10~-12~-12r---10~-12r-----| |----------------------------|----------------------------| |----------------------------|----------------------------| |----------------------------|----------------------------| |----------------------------|----------------------------| |----------------------------|--------------------|| |--10~-12~-12r---10~-12r-----|----------12~-------|| |----------------------------|--------------------|| |----------------------------|--------------------|| |----------------------------|--------------------|| |----------------------------|--------------------|| FINAL E||------------------------|-----------------------|--------------------| B||------------------------|-----------------------|--------------------| G||*-----------------------|-----------------------|--------------------| D||*--12~---12~---12-12~---|-------11h-12p-11------|---9~---9~---9-9~---| A||------------------------|-----------------------|--------------------| E||------------------------|-----------------------|--------------------| 4x 4x |-----------------------||--------------------------|| |-----------------------||--------------------------|| |----------------------*||*------------------------*|| |----------9h-11p-9----*||*------------------7h-9--*|| |-----------------------||-----------9----9---------|| |-----------------------||---7----7-----------------|| KEYBOARD INTRO E |-14-12-14-19-14-10-14-19-| B |-------------------------| G |-------------------------| D |-------------------------| A |-------------------------| E |-------------------------| |-14----14-17-14----14-17-|-14-12-14-19-14-10-14-19-| |----14----------14-------|-------------------------| |-------------------------|-------------------------| |-------------------------|-------------------------| |-------------------------|-------------------------| |-------------------------|-------------------------| |-14-12-14-19-14-10-14-19-| |-------------------------| |-------------------------| |-------------------------| |-------------------------| |-------------------------| STRINGS E |----------|--------|---------|---------|--------| B |----3-----|--------|---------|---------|--------| G |----4-----|--------|---------|---------|--------| D |----4-----|--------|---------|---------|--------| A |----------|--------|---------|---------|--------| E |----------|--------|---------|---------|--------| |------|------|------|-5-|------|-2-|-----|---|------|------|------| |------|------|------|-7-|------|-3-|-3---|-3-|------|------|------| |------|------|------|-7-|------|-4-|-2-2-|-4-|------|------|------| |------|------|------|-7-|------|-5-|---2-|-4-|------|------|------| |------|------|------|---|------|---|-----|---|------|------|------| |------|------|------|---|------|---|-----|---|------|------|------| |-5-|------|-2-|-----|-10-|------|------|------|-10-|------|-10-| |-7-|------|-3-|-3---|-12-|------|------|------|-10-|------|-12-| |-7-|------|-4-|-2-2-|-11-|------|------|------|-11-|------|-12-| |-7-|------|-5-|---2-|-12-|------|------|------|-12-|------|-12-| |---|------|---|-----|----|------|------|------|----|------|----| |---|------|---|-----|----|------|------|------|----|------|----| |----12--|-10-|---|----|------|-10-|------|-10-|----12-|---|------| |-10-10--|-12-|---|----|------|-10-|------|-12-|-10-10-|-3-|------| |----9---|-11-|---|----|------|-11-|------|-12-|----9--|-4-|------| |--------|-12-|---|----|------|-12-|------|-12-|-------|-4-|------| |--------|----|---|----|------|----|------|----|-------|---|------| |--------|----|---|----|------|----|------|----|-------|---|------| |----|------|------|------|------|------|-5-|------|-2-|-----|---| |----|------|------|------|------|------|-7-|------|-3-|-3---|-3-| |----|------|------|------|------|------|-7-|------|-4-|-2-2-|-4-| |----|------|------|------|------|------|-7-|------|-5-|---2-|-4-| |----|------|------|------|------|------|---|------|---|-----|---| |----|------|------|------|------|------|---|------|---|-----|---| |---|----|----|-5-|------|-2-|-----|-10-|----|-----|------|--10--| |---|----|----|-7-|------|-3-|-3---|-12-|----|-----|------|--10--| |---|----|----|-7-|------|-4-|-2-2-|-11-|----|-----|------|--11--| |---|----|----|-7-|------|-5-|---2-|-12-|----|-----|------|--12--| |---|----|----|---|------|---|-----|----|----|-----|------|------| |---|----|----|---|------|---|-----|----|----|-----|------|------| |----|-10-|----12-|-10-|----|----|----|-10-|------|-10-|-10-10-| |----|-12-|-10-10-|-12-|----|----|----|-10-|------|-12-|-12-12-| |----|-12-|----9--|-11-|----|----|----|-11-|------|-12-|-12-12-| |----|-12-|-------|-12-|----|----|----|-12-|------|-12-|-12-12-| |----|----|-------|----|----|----|----|----|------|----|-------| |----|----|-------|----|----|----|----|----|------|----|-------| |------|------|------|------|------|------|------|------|------| |------|------|------|------|------|------|------|------|------| |------|------|------|------|------|------|------|------|------| |------|------|------|------|------|------|------|------|------| |------|------|------|------|------|------|------|------|------| |------|------|------|------|------|------|------|------|------| |------|------|------|------|------|------|------|----|----|-----| |------|------|------|------|------|------|------|----|----|-----| |------|------|------|------|------|------|------|----|----|-----| |------|------|------|------|------|------|------|----|----|-----| |------|------|------|------|------|------|------|----|----|-----| |------|------|------|------|------|------|------|----|----|-----| |------|-10-|------|----|------|-10-|-----|-10-|----12-|-10-|-----| |------|-12-|------|----|------|-10-|-----|-12-|-10-10-|-12-|-----| |------|-11-|------|----|------|-11-|-----|-12-|----9--|-11-|-----| |------|-12-|------|----|------|-12-|-----|-12-|-------|-12-|-----| |------|----|------|----|------|----|-----|----|-------|----|-----| |------|----|------|----|------|----|-----|----|-------|----|-----| |------|------|-10-|------|-10-|----12-|------|------|------|----| |------|------|-10-|------|-12-|-10-10-|------|------|------|----| |------|------|-11-|------|-12-|----9--|------|------|------|----| |------|------|-12-|------|-12-|-------|------|------|------|----| |------|------|----|------|----|-------|------|------|------|----| |------|------|----|------|----|-------|------|------|------|----| |------|------|------|------|------|------|------|----|----|---| |------|------|------|------|------|------|------|----|----|---| |------|------|------|------|------|------|------|----|----|---| |------|------|------|------|------|------|------|----|----|---| |------|------|------|------|------|------|------|----|----|---| |------|------|------|------|------|------|------|----|----|---| |------|------|------|------|------|------|------|------|------| |------|------|------|------|------|------|------|------|------| |------|------|------|------|------|------|------|------|------| |------|------|------|------|------|------|------|------|------| |------|------|------|------|------|------|------|------|------| |------|------|------|------|------|------|------|------|------| |------|-2-|------|------|------|------|------|----|----|---|----| |------|-3-|------|------|------|------|------|----|----|---|----| |------|-4-|------|------|------|------|------|----|----|-4-|----| |------|---|------|------|------|------|------|----|----|---|----| |------|---|------|------|------|------|------|----|----|---|----| |------|---|------|------|------|------|------|----|----|---|----| |------|------|------|------|------|------|-10-|------|------|----| |------|------|------|------|------|------|-12-|------|------|----| |------|------|------|------|------|------|-11-|------|------|----| |------|------|------|------|------|------|-12-|------|------|----| |------|------|------|------|------|------|----|------|------|----| |------|------|------|------|------|------|----|------|------|----| |-10-|------|-10-|----12-|-10-|------|----|----|-10-|----|-10-| |-10-|------|-12-|-10-10-|-12-|------|----|----|-10-|----|-12-| |-11-|------|-12-|----9--|-11-|------|----|----|-11-|----|-12-| |-12-|------|-12-|-------|-12-|------|----|----|-12-|----|-12-| |----|------|----|-------|----|------|----|----|----|----|----| |----|------|----|-------|----|------|----|----|----|----|----| |----12-|-10-|------|------|------|-10-|------|-10-|----12-|-10-| |-10-10-|-12-|------|------|------|-10-|------|-12-|-10-10-|-12-| |----9--|-11-|------|------|------|-11-|------|-12-|----9--|-11-| |-------|-12-|------|------|------|-12-|------|-12-|-------|-12-| |-------|----|------|------|------|----|------|----|-------|----| |-------|----|------|------|------|----|------|----|-------|----| |-----|------|------|-10-|------|-10-|----12-| |-----|------|------|-10-|------|-12-|-10-10-| |-----|------|------|-11-|------|-12-|----9--| |-----|------|------|-12-|------|-12-|-------| |-----|------|------|----|------|----|-------| |-----|------|------|----|------|----|-------| KEYBOARD E |-19-|-10-| B |----|----| G |----|----| D |----|----| A |----|----| E |----|----| BRIDGE E |---|------|------|------|---|------|---|-------|---|-----| B |-0-|------|------|------|---|------|---|---3---|-0-|-----| G |---|------|------|------|-2-|------|-0-|-----2-|---|-----| D |---|------|------|------|---|------|---|-2-----|---|-----| A |---|------|------|------|---|------|---|-------|---|-----| E |---|------|------|------|---|------|---|-------|---|-----| |---|-17-14-10-12-9-5-7-|------|----|------|-17-14-10-12-9-5-7-| |---|-------------------|------|----|------|-------------------| |---|-------------------|------|----|------|-------------------| |---|-------------------|------|----|------|-------------------| |---|-------------------|------|----|------|-------------------| |---|-------------------|------|----|------|-------------------| |-14-|-12-17-|-7-14-|-12-17-14-10-12-9-5-7-|-14-|-12-17-|-7-14-| |----|-------|------|----------------------|----|-------|------| |----|-------|------|----------------------|----|-------|------| |----|-------|------|----------------------|----|-------|------| |----|-------|------|----------------------|----|-------|------| |----|-------|------|----------------------|----|-------|------| |-12-17-14-10-12-9-5-7-|-14-|-12-17-|-7-14-|-12-17-14-10-12-9-5-7-| |----------------------|----|-------|------|----------------------| |----------------------|----|-------|------|----------------------| |----------------------|----|-------|------|----------------------| |----------------------|----|-------|------|----------------------| |----------------------|----|-------|------|----------------------| |--14--|-12-17-|-19-21-| |------|-------|-------| |------|-------|-------| |------|-------|-------| |------|-------|-------| |------|-------|-------| Verse1 Last night a little dancer came dancin' to my door Last night my little angel came pumpin' on the floor She said, "Come, baby, I got a license for love And if it expires, pray help from above" Because Chorus In the midnight hour, she cried more, more, more With a rebel yell, she cried more, more, more In the midnight hour, babe, more, more, more With a rebel yell, she cried more, more, more More! More! More! Verse2 She don't like slavery, she won't sit and beg But when I'm tired and lonely, she sees me to bed What set you free and brought you to me, babe What set you free, I need you here by me Because Chorus In the midnight hour, she cried more, more, more With a rebel yell, she cried more, more, more In the midnight hour, babe, more, more, more With a rebel yell, she cried more, more, more More! More! More! Break He lives in his own heaven Collects it to go from the 7-11 Well, he's out all night to collect a fare Just so long, just so long it don't mess up his hair SOLO Bridge I walked the walls for you babe A thousand miles for you I dried your tears of pain 666 times for you I'd sell my soul for you, babe For money to burn for you I'd give you all and have none, babe Just-a just-a just-a just-a to have you here by me Chorus End In the midnight hour, she cried more, more, more With a rebel yell, she cried more, more, more In the midnight hour, babe, more, more, more With a rebel yell she cried more, more, more More! More! More! Oh yeah little Baby. She wants more. More! More! More! More! More! Oh yeah little Baby. She wants more. More! More! More! More! Moooore!








О сайтеАккордыХит-парадПоискУроки ФорумыИщу песню
ПрограммыСвежачок-сПодпискаСтатьи
Яндекс.Метрика