Табулатура Ber-Linn | Моя Любовь На Пятом Этаже(official version) гитара табулатуры уроки тексты песен Ber-Linn текст lyrics песня аккорды песни ноты нота электрогитара струна  
   А Б В Г Д Е Ж З И К Л М Н О П Р С Т У Ф Х Ч Ш Ы Э Ю Я       Разные песни
1-9 A B C D E F G H I J K L M N O P Q R S T U V W Y Z      Все исполнители

    



группа Ber-Linn, Табулатура песни Моя Любовь На Пятом Этаже(official version)

Группа: Ber-Linn - другие аккорды (25),   о группе (7 статей),   диски (3),   фотографии (6)
Табулатура песни: Моя Любовь На Пятом Этаже(official version)
Просмотров: 1773
Подобрал: Ilya (ilya@ber-linn.ru)




    
BER-LINN - Моя Любовь На Пятом Этаже
Official version
  Вступление + первый куплет:
                               F                      Gm                     Am                   
E||-------------------------|----------------------|----------------------|----------------------|
B||-------------------------|----------------------|----------------------|----------------------|
G||-------------------------|--2----2--2------2----|--3----3--3------3----|--5----5--5------5----|
D||----5--5--5--5--5--5--5--|--3----3--3------3----|--5----5--5------5----|--7----7--7------7----|
A||----3--3--3--3--3--3--3--|--3----3--3------3----|--5----5--5------5----|--7----7--7------7----|
E||-------------------------|--1----1--1------1----|--3----3--3------3----|--5----5--5------5----|
  Dm                     Gm                     A                      Dm                  
----------------------|----------------------|----------------------|-------5--5----------|
----------------------|----------------------|----------------------|--6----6--6----------|
--7----7--7------7----|--3----3--3------3----|----------------------|--7----7--7----------|
--7----7--7------7----|--5----5--5------5----|--7----7--7------7----|--7----7--7----------|
--5----5--5------5----|--5----5--5------5----|--7----7--7------7----|--5----5--5----------|
----------------------|--3----3--3------3----|--5----5--5------5----|---------------------|
  F                     Bb                    Bbm                   F                       
-------5--5----------|-------6--6----------|-------6--6----------|-------------------------|
--6----6--6----------|-------6--6----------|-------6--6----------|-------------------------|
--5----5--5----------|--7----7--7----------|--6----6--6----------|--2----------------------|
--7----7--7----------|--8----8--8----------|--8----8--8----------|--3----------------------|
--8----8--8----------|--8----8--8----------|--8----8--8----------|--3----3--3--3--3--3--3--|
---------------------|--6----6--6----------|--6----6--6----------|--1----1--1--1--1--1--1--|
  Gm                         Am                         Dm                         Gm                       
--------------------------|--------------------------|--------------------------|--------------------------|
--------------------------|--------------------------|--------------------------|--------------------------|
--------------------------|--------------------------|--------------------------|--------------------------|
--------------------------|--------------------------|--7--7--7--7--7--7--7--7--|--------------------------|
--5--5--5--5--5--5--5--5--|--7--7--7--7--7--7--7--7--|--5--5--5--5--5--5--5--5--|--5--5--5--5--5--5--5--5--|
--3--3--3--3--3--3--3--3--|--5--5--5--5--5--5--5--5--|--------------------------|--3--3--3--3--3--3--3--3--|
  A                          Dm                    F                     Bb                  
--------------------------|-------5--5----------|-------5--5----------|-------6--6----------|
--------------------------|-------6--6----------|-------6--6----------|-------6--6----------|
--------------------------|-------7--7----------|-------5--5----------|-------7--7----------|
--------------------------|--7----7--7----------|--7----7--7----------|-------8--8----------|
--7--7--7--7--7--7--7--7--|--5----5--5----------|--8----8--8----------|--8----8--8----------|
--5--5--5--5--5--5--5--5--|---------------------|---------------------|--6----6--6----------|
  Bbm                                              
-------6--6------6--6--|-------------------------|
-------6--6------6--6--|-------------------------|
-------6--6------6--6--|----5--5--5--2-----------|
-------8--8------8--8--|----------------5--3-----|
--8----8--8------8--8--|----------------------5--|
--6----6--6------6--6--|-------------------------|
  Первый припев:
                        Gm     C         Am      Am                      Dm     Am        Dm  
E||------------------|----------------------|-------------------------|----------------------|
B||------------------|----------------------|-------------------------|----------------------|
G||------------------|---------5--5------5--|-------------------------|--7----------------7--|
D||------------------|--5------5--5------7--|----7--7--7--7--7--7--7--|--7------7--7------7--|
A||------------------|--5------3--3------7--|----7--7--7--7--7--7--7--|--5------7--7------5--|
E||------------------|--3----------------5--|----5--5--5--5--5--5--5--|---------5--5---------|
    Dm                      Gm                        Bb                        C           Bb       C         
-------------------------|-------------------------|-------------------------|---------------------------|----|
-------------------------|-------------------------|-------------------------|---------------------------|----|
----7--7--7--7--7--7--7--|-------------------------|-------------------------|---------------------------|----|
----7--7--7--7--7--7--7--|--5----5--5--5--5--5--5--|--8----8--8--8--8--8--8--|--10----10----8--8--8--10--|----|
----5--5--5--5--5--5--5--|--5----5--5--5--5--5--5--|--8----8--8--8--8--8--8--|--10----10----8--8--8--10--|----|
-------------------------|--3----3--3--3--3--3--3--|--6----6--6--6--6--6--6--|--8-----8-----6--6--6--8---|----|
  F       Dm        Bb    Bb     C           F      F                          
-----------------------|-------------------------|----------------------------|
-----------------------|-------------------------|----------------------------|
--10------7--7---------|---------------------10--|--10----10----10----10--10--|
--10------7--7------8--|--8------10--10------10--|--10----10----10----10--10--|
--8-------5--5------8--|--8------10--10------8---|--8-----8-----8-----8---8---|
--------------------6--|--6------8---8-----------|----------------------------|
    C                             
--------------------------------|
--------------------------------|
--------------------------------|
----10--10--10--10--10--10--10--|
----10--10--10--10--10--10--10--|
----8---8---8---8---8---8---8---|
  Второй куплет (с второй половины):
     Dm                  Bb       C                                                                
E||--5----------------|---------------------|--------------------------|--------------------------|
B||--6----------------|--6--------8---------|--6--6--------5--5--------|--6--6--------5--5--------|
G||--7----------------|--7--------9---------|--------5--5--------5--5--|--------5--5--------5--5--|
D||--7----------------|--8--------10--------|--------------------------|--------------------------|
A||--5----------------|--8--------10--------|--------------------------|--------------------------|
E||-------------------|--6--------8---------|--------------------------|--------------------------|
                                                        Gm                         A                        
--------------------------|--------------------------|--------------------------|--------------------------|
--6--6--------5--5--------|--6--6--------5--5--------|--------------------------|--------------------------|
--------5--5--------5--5--|--------5--5--------5--5--|--------------------------|--------------------------|

Продолжаем грести бабос на ботах в Telegram.
Только в этот раз есть вариант автоматизировать это дело, привлекая рефералов. Вы можете заработать если »

--------------------------|--------------------------|--5--5--5--5--5--5--5--5--|--7--7--7--7--7--7--7--7--| --------------------------|--------------------------|--5--5--5--5--5--5--5--5--|--7--7--7--7--7--7--7--7--| --------------------------|--------------------------|--3--3--3--3--3--3--3--3--|--5--5--5--5--5--5--5--5--| Dm F Bb Bbm ------5--------5----|------5--------5----|------6--------6----|------6--------6--6--|-------------------------| ------6--------6----|------6--------6----|------6--------6----|------6--------6--6--|-------------------------| ------7--------7----|------5--------5----|------7--------7----|------6--------6--6--|----5--5--5--2-----------| --------------------|------7--------7----|------8--------8----|------8--------8--8--|----------------5--3-----| --------------------|--------------------|--------------------|---------------------|----------------------5--| --------------------|--------------------|--------------------|---------------------|-------------------------|   Второй, третий и последний припевы: Gm C Am Am Dm Am Dm E||------------------|----------------------|-------------------------|----------------------| B||------------------|----------------------|-------------------------|----------------------| G||------------------|---------5--5---------|-------------------------|--7----------------7--| D||------------------|--5------5--5------7--|----7--7--7--7--7--7--7--|--7------7--7------7--| A||------------------|--5------3--3------7--|----7--7--7--7--7--7--7--|--5------7--7------5--| E||------------------|--3----------------5--|----5--5--5--5--5--5--5--|---------5--5---------| Dm Gm Bb C Bb C -------------------------|-------------------------|-------------------------|---------------------------| -------------------------|-------------------------|-------------------------|---------------------------| ----7--7--7--7--7--7--7--|-------------------------|-------------------------|---------------------------| ----7--7--7--7--7--7--7--|--5----5--5--5--5--5--5--|--8----8--8--8--8--8--8--|--10----10----8--8--8--10--| ----5--5--5--5--5--5--5--|--5----5--5--5--5--5--5--|--8----8--8--8--8--8--8--|--10----10----8--8--8--10--| -------------------------|--3----3--3--3--3--3--3--|--6----6--6--6--6--6--6--|--8-----8-----6--6--6--8---| { в последнем припеве эти 2 такта повторяются } F Dm Bb Bb C --------------------------------|-----------------------|-----------------------| --------------------------------|-----------------------|-----------------------| --------------------------------|--10------7--7---------|-----------------------| ----10--10--10--10--10--10--10--|--10------7--7------8--|--8------10--10--------| ----10--10--10--10--10--10--10--|--8-------5--5------8--|--8------10--10--------| ----8---8---8---8---8---8---8---|--------------------6--|--6------8---8---------|   Третий куплет: F Gm Am Dm E||-------------------------|--------------------------|--------------------------|--------------------------| B||-------------------------|--------------------------|--------------------------|--------------------------| G||-------------------------|--------------------------|--------------------------|--------------------------| D||--3----------------------|--------------------------|--------------------------|--7--7--7--7--7--7--7--7--| A||--3----3--3--3--3--3--3--|--5--5--5--5--5--5--5--5--|--7--7--7--7--7--7--7--7--|--5--5--5--5--5--5--5--5--| E||--1----1--1--1--1--1--1--|--3--3--3--3--3--3--3--3--|--5--5--5--5--5--5--5--5--|--------------------------| Gm A Dm Bb C --------------------------|--------------------------|--5----------------|---------------------| --------------------------|--------------------------|--6----------------|------6--------8-----| --------------------------|--------------------------|--7----------------|------7--------9-----| --------------------------|--7--7--7--7--7--7--7--7--|--7----------------|------8--------10----| --5--5--5--5--5--5--5--5--|--7--7--7--7--7--7--7--7--|--5----------------|------8--------10----| --3--3--3--3--3--3--3--3--|--5--5--5--5--5--5--5--5--|-------------------|------6--------8-----| F Gm Am Dm -------------------------|-------------------------|-------------------------|-------------------------| -------------------------|-------------------------|-------------------------|-------------------------| --2----2--2--2--2--2--2--|--3----3--3--3--3--3--3--|--5----5--5--5--5--5--5--|--7----7--7--7--7--7--7--| --3----3--3--3--3--3--3--|--5----5--5--5--5--5--5--|--7----7--7--7--7--7--7--|--7----7--7--7--7--7--7--| --3----3--3--3--3--3--3--|--5----5--5--5--5--5--5--|--7----7--7--7--7--7--7--|--5----5--5--5--5--5--5--| --1----1--1--1--1--1--1--|--3----3--3--3--3--3--3--|--5----5--5--5--5--5--5--|-------------------------| Gm A Dm F -------------------------|-------------------------|----------------------|----------------------| -------------------------|-------------------------|--6----6----6----6----|--6----6----6----6----| -------------------------|-------------------------|--7----7----7----7----|--5----5----5----5----| --5----5--5--5--5--5--5--|--7----7--7--7--7--7--7--|--7----7----7----7----|--7----7----7----7----| --5----5--5--5--5--5--5--|--7----7--7--7--7--7--7--|--5----5----5----5----|--8----8----8----8----| --3----3--3--3--3--3--3--|--5----5--5--5--5--5--5--|----------------------|----------------------| Bb Bbm ----------------------|-----------------------|-------------------------| ----------------------|-----------------------|-------------------------| --7----7----7----7----|--6----6----6----6--6--|----5--5--5--2-----------| --8----8----8----8----|--8----8----8----8--8--|----------------5--3-----| --8----8----8----8----|--8----8----8----8--8--|----------------------5--| --6----6----6----6----|--6----6----6----6--6--|-------------------------|   Соло: E||---------------------------|--------------------------|-----------------------|-------------------------| B||---------------------------|--------------------------|-----------------------|-------------------------| G||---------------------------|--------------------------|--------7--------------|-----------------7-------| D||---------------------7--8--|--10----10--10----7----8--|--10-------10----------|----7----8--10-------10--| A||-----------7--8--10--------|--------------------------|-----------------------|-------------------------| E||----8--10------------------|--------------------------|-----------------------|-------------------------| ------------------------|------------------------|---------------------------|---------------------10----|| ------------------------|------------------------|------------------------8--|--8----10--10--------10----|| --8---7-----------------|------------------------|------------7--9---10------|---------------------------|| ----------10----7----7--|--7---8-----------------|--7--8--10-----------------|---------------------------|| ------------------------|----------10--------10--|---------------------------|---------------------------|| ------------------------|------------------------|---------------------------|---------------------------||

vpns.ru







О сайтеАккордыХит-парадПоискУроки ФорумыИщу песню
ПрограммыСвежачок-сПодпискаСтатьи
Яндекс.Метрика