Аккорды Эпидемия | Рождённый Для Битвы  (2) гитара табулатуры уроки тексты песен Эпидемия текст lyrics песня аккорды песни ноты нота электрогитара струна  
   А Б В Г Д Е Ж З И К Л М Н О П Р С Т У Ф Х Ч Ш Ы Э Ю Я       Разные песни
1-9 A B C D E F G H I J K L M N O P Q R S T U V W Y Z      Все исполнители

    



группа Эпидемия, Аккорды песни Рождённый Для Битвы (2)

Группа: Эпидемия - другие аккорды (138),   о группе (9 статей),   диски (6),   фотографии (18)
Аккорды песни: Рождённый Для Битвы (2)
Просмотров: 1234
Подобрал: Torturer (torturer@mail.ru)




    
Группа:Эпидемия
Песня:Рожденный Для Битвы
`Рожденный Для Битвы` (Эльфийская рукопись) (Строй - D#)
Tab by Alexander Malyshev (torturer@mail.ru)
Rhythm Guitar:
Em--C--A--D-H (вешать) (2раза)
Em--C--A--D-H (боем) (2раза)
Verse1:
Что(Em) же мне делать . оди(C)н против всех
Ка(A)к поступить и куда(D) мне идти(H)?
Я(Em) у врага только вы(C)зову смех
Ша(A)нсы мои . оди(D)н к десяти(H).
Bridge:
(Em)Тебя, мой дру(D)г, (H)не обессу(Em)дь
(Em)Хочу с собо(G)й я взя(D)ть,
(Em)Но может ста(D)ть смерте(H)льным пу(Em)ть
(Em)Ты должен са(G)м реша(D)ть.
Em--C--A--D-H (вешать)
Em--C--A--D-H (боем)
Chorus:
Для тебя(Em) мой ме(С)ч
Не ра(D)з ещё послу(H)жит,
О(C)н сокруши(Em)т ска(F#)лы и лё(H)д.
Словно ди(Em)кий сме(C)рч
Тьмы(D) оплот разру(H)шит,
То(C)лько скажи(Em) сло(F#)во вперё(H)д.
Вперёд... 
Em--C--A--D-H (боем) (2раза)
Verse2:
При(Em)зраков смерти, созда(C)ния зла
Дей(A)мос Безликий из бе(D)здны призва(H)л.
Ми(Em)р наш накроет густа(C)я зола,
Ржа(A)вчина съест благоро(D)дный мета(H)лл.
Bridge:
(Em)Возьми свой ме(D)ч, разве(H)й мой стра(Em)х.
(Em)Мы не нужны(G) бога(D)м!
(Em)Игрушкой у(D) судьбы(H) в рука(Em)х
(Em)Быть не приста(G)ло на(D)м!
Em--C--A--D-H (вешать)
Em--C--A--D-H (боем)
Chorus:
Для тебя(Em) мой ме(С)ч
Не ра(D)з ещё послу(H)жит,
О(C)н сокруши(Em)т ска(F#)лы и лё(H)д.
Словно ди(Em)кий сме(C)рч
Тьмы(D) оплот разру(H)шит,
То(C)лько скажи(Em) сло(F#)во вперё(H)д.
Вперёд... 
Solo:
Am-Am-Am-Am-Am-Am(на сл. долю)-G(на сильную) (2 раза)
Em-Em-Em-Em-Em-Em - F (теперь все боем) (4 раза)
Theme:
H (боем, дохуя раз, насчитал около 16 тактов! Если надоест можно попробовать обыграть H ;)
Em--C--A--D-H (боем) (2раза)
Verse3:
Де(Em)змонд, мой друг, я гото(C)в ко всему, -
То(A)лько для битвы я(D) был рождё(H)н.
Стра(Em)х - это слабость и(C) потому:
Кто(A) испугался, уже(D) побеждё(H)н.
Bridge:
(Em)Да не прони(D)кнет в се(H)рдце стра(Em)х. 
(Em)Луч веры не(G) поту(D)х.
(Em)Найдёте си(D)лу вы(H) в гора(Em)х,
(Em)Где жив бессме(G)ртный ду(D)х!
Em--C--A--D-H (вешать)
Em--C--A--D-H (боем)
Chorus:
Для тебя(Em) мой ме(С)ч
Не ра(D)з ещё послу(H)жит,
О(C)н сокруши(Em)т ска(F#)лы и лё(H)д.
Словно ди(Em)кий сме(C)рч
Тьмы(D) оплот разру(H)шит,
То(C)лько скажи(Em) сло(F#)во вперё(H)д.
Am-Am-Am-Am(на сл. долю)-Am(на сильную).
Lead Guitar: (практически все играется `восьмушками`)
                                                           
D#||---------------------------|--------------------------|
A#||---------------------------|--------------------------|
F#||*-----------0-----------0--|-----------0-----------0--|
C#||*--------2-----------2-----|--------2-----------2-----|
G#||------2-----------2--------|-----2-----------2--------|
D#||---0-----------0-----------|--0-----------0-----------|
                                                      
--------------------------|--------------------------|
-----------1-----------1--|-----------1-----------1--|
--------0-----------0-----|--------0-----------0-----|
-----2-----------2--------|-----2-----------2--------|
--3-----------3-----------|--3-----------3-----------|
--------------------------|--------------------------|
                                                      
--------------------------|--------------------------|
-----------2-----------2--|-----------2-----------2--|
--------2-----------2-----|--------2-----------2-----|
-----2-----------2--------|-----2-----------2--------|
--0-----------0-----------|--0-----------0-----------|
--------------------------|--------------------------|
                                                        
-----------2-----------2--|-----------2-----------2---||
--------3-----------3-----|--------4-----------4------||
-----2-----------2--------|-----4-----------4--------*||
--0-----------0-----------|--4-----------4-----------*||
--------------------------|---------------------------||
--------------------------|---------------------------||
                                                       
--------------------------|---------------------------|
--------------------------|---------------------------|
*-------------------------|---------------------------|
*--9----------------------|--9-----10-----9-----5--5--|
---7----7--7--7--7--7--7--|-----7------7-----7-----3--|
--------------------------|---------------------------|
                                                                              
-------------------------|-------------------------|-------------------------|
-------------------------|-------------------------|-------------------------|
-------------------------|-------------------------|-------------------------|
----5--------5--------5--|----5--------5-----------|-------------------------|
----3--3--3--3--3--3--3--|----3--3--3--3--3--------|--4----------------------|
-------------------------|-------------------5--3--|--5----5--5--5--5--5--5--|
                                                     
--------------------------|-------------------------|
--------------------------|-------------------------|
--------------------------|-------------------------|
--7-----9-----7-----5--7--|-------------5--4--2--4--|
-----0-----0-----0--------|----5--5--5-----------2--|
--------------------------|-------------------------|
                               Em                  C                 
--------------------------||---0----------------|--0----------------|
--------------------------||---0----------------|--1----------------|
-------------------------*||*--0----------------|--0----------------|
-------------5--4-----4--*||*--2----------------|--2----------------|
----2--2--2--------5------||---2----------------|--3----------------|
--------------------------||---0----------------|-------------------|
  A                   D        B                                          
--0----------------|--2--------2---------||------------------------------|
--2----------------|--3--------4---------||------------------------------|
--2----------------|--2--------4--------*||------------------------------|
--2----------------|--0--------4--------*||--------9-------7-----9-------|
--0----------------|-----------2---------||--7--7--10--10--9--9--10--10--|
-------------------|---------------------||------------------------------|
                                                      
--------------------------|--------------------------|
--------------------------|--------------------------|
--------------------------|--------2-----0-----2-----|
--------7-----5-----7-----|--------4--4--2--2--4--4--|
--5--5--9--9--7--7--9--9--|--2--2--------------------|
--------------------------|--------------------------|
                                                                             
------------------------------|-------------------------|-------------------|
------------------------------|-------------------------|-------------------|
------------------------------|-------------------------|-------------------|
--------9-------7-----9-------|-------------------------|--5----------------|
--7--7--10--10--9--9--10--10--|--7--7--10----9----10----|--5----------------|
------------------------------|-------------------------|--3----------------|
                                                                          
-------------------|----------------------|------------------------------|
-------------------|----------------------|------------------------------|
-------------------|--5----4----2---------|------------------------------|
--7----------------|--7----5----4----4----|--------9-------7-----9-------|
--5----------------|-----------------5----|--7--7--10--10--9--9--10--10--|
-------------------|----------------------|------------------------------|
                                                      
--------------------------|--------------------------|
--------------------------|--------------------------|
--------------------------|--------2-----0-----2-----|
--------7-----5-----7-----|--------4--4--2--2--4--4--|
--5--5--9--9--7--7--9--9--|--2--2--------------------|
--------------------------|--------------------------|
                                                              
------------------------------|------------------------------|
------------------------------|------------------------------|
------------------------------|------------------------------|
--------9-------7-----9-------|--------9-------7-----9-------|
--7--7--10--10--9--9--10--10--|--7--7--10--10--9--9--10--10--|
------------------------------|------------------------------|
                                                               
-------------------|-------------------|----------------------|
-------------------|-------------------|----------------------|
-------------------|-------------------|--5----4----2---------|
--5----------------|--7----------------|--7----5----4----5----|
--5----------------|--5----------------|-----------------5----|
--3----------------|-------------------|----------------------|
                                                          
----------------------------|----------------------------|
----------------------------|----------------------------|
----------------------------|----------------------------|
------------9---------------|----------------------------|
--10--7--7-----7--7--10--7--|--9--7--10--7--9--7--9--10--|
----------------------------|----------------------------|
                                                        
---------------------------|---------------------------|
---------------------------|---------------------------|
---------------------------|---------------------------|
---------------------------|---------------------------|
--7--------10--------9-----|-----10--------7-----9-----|
-----8--8------8--8-----8--|--8------8--8-----8-----8--|
                                                      
--------------------------|--------------------------|
--------------------------|--------------------------|
--------------------------|--------------------------|
-----------5--------------|--------------------------|
--7-----------------7-----|--9-----7-----9-----7--9--|
-----5--5-----5--5-----5--|-----5-----5-----5--------|
                                                      
--------------------------|--------------------------|
--------------------------|--------------------------|
--------------------2-----|--4--------2--------------|
--4--------5--------------|--------------------5-----|
-----2--2-----2--2-----2--|-----2--2-----2--2-----2--|
--------------------------|--------------------------|
                                                      
-----------7--------------|--------------------------|
--8--5--5-----5--5--8--5--|--7--5--8--5--7--5--7--8--|
--------------------------|--------------------------|
--------------------------|--------------------------|
--------------------------|--------------------------|
--------------------------|--------------------------|
                                                      
--------------------------|--------------------------|
--5--------8--------7-----|-----8--------5-----7-----|
-----5--5-----5--5-----5--|--5-----5--5-----5-----5--|
--------------------------|--------------------------|
--------------------------|--------------------------|
--------------------------|--------------------------|
                                                      
-----------3--------------|--2-----------2-----------|
--5-----------------5-----|--------5-----------5--7--|
-----2--2-----2--2-----2--|-----2-----2-----2--------|
--------------------------|--------------------------|
--------------------------|--------------------------|
--------------------------|--------------------------|
                                                                            
-----------3--------5-----|--7--------5--------3-----||--------------------|
--7-----------------------|--------------------------||--------------------|
-----4--4-----4--4-----4--|-----4--4-----4--4-----4--||*-------------------|
--------------------------|--------------------------||*--2----------------|
--------------------------|--------------------------||---2----------------|
--------------------------|--------------------------||---0----------------|
                                                                
---------------------|-------------------|---------------------|
---------------------|-------------------|---------------------|
----------------0----|--7----------------|----------------4----|
---------2-----------|--7----------------|---------4-----------|
--3------------------|--5----------------|--2------------------|
---------------------|-------------------|---------------------|
                                                              
-------------------|---------------------|-------------------|
-------------------|----------------5----|-------------------|
--5----------------|---------3-----------|-------------------|
--5----------------|--2------------------|--4----------------|
--3----------------|---------------------|--4----------------|
-------------------|---------------------|--2----------------|
                                                                               
----------------------||--------------------------|---------------------------|
----------------------||--------------------------|---------------------------|
----------------4----*||*-------------------------|---------------------------|
---------4-----------*||*--9----------------------|--9-----10-----9-----5--5--|
--2-------------------||---7----7--7--7--7--7--7--|-----7------7-----7-----3--|
----------------------||--------------------------|---------------------------|
                                                                              
-------------------------|-------------------------|-------------------------|
-------------------------|-------------------------|-------------------------|
-------------------------|-------------------------|-------------------------|
----5--------5--------5--|----5--------5-----------|-------------------------|
----3--3--3--3--3--3--3--|----3--3--3--3--3--------|--4----------------------|
-------------------------|-------------------5--3--|--5----5--5--5--5--5--5--|
                                                     
--------------------------|-------------------------|
--------------------------|-------------------------|
--------------------------|-------------------------|
--7-----9-----7-----5--7--|-------------5--4--2--4--|
-----0-----0-----0--------|----5--5--5-----------2--|
--------------------------|-------------------------|
                               Em                  C                 
--------------------------||---0----------------|--0----------------|
--------------------------||---0----------------|--1----------------|
-------------------------*||*--0----------------|--0----------------|
-------------5--4-----4--*||*--2----------------|--2----------------|
----2--2--2--------5------||---2----------------|--3----------------|
--------------------------||---0----------------|-------------------|
  A                   D        B                                          
--0----------------|--2--------2---------||------------------------------|
--2----------------|--3--------4---------||------------------------------|
--2----------------|--2--------4--------*||------------------------------|
--2----------------|--0--------4--------*||--------9-------7-----9-------|
--0----------------|-----------2---------||--7--7--10--10--9--9--10--10--|
-------------------|---------------------||------------------------------|
                                                      
--------------------------|--------------------------|
--------------------------|--------------------------|
--------------------------|--------2-----0-----2-----|
--------7-----5-----7-----|--------4--4--2--2--4--4--|

Продолжаем грести бабос на ботах в Telegram.
Только в этот раз есть вариант автоматизировать это дело, привлекая рефералов. Вы можете заработать если »

--5--5--9--9--7--7--9--9--|--2--2--------------------| --------------------------|--------------------------| ------------------------------|-------------------------|-------------------| ------------------------------|-------------------------|-------------------| ------------------------------|-------------------------|-------------------| --------9-------7-----9-------|-------------------------|--5----------------| --7--7--10--10--9--9--10--10--|--7--7--10----9----10----|--5----------------| ------------------------------|-------------------------|--3----------------| -------------------|----------------------|------------------------------| -------------------|----------------------|------------------------------| -------------------|--5----4----2---------|------------------------------| --7----------------|--7----5----4----4----|--------9-------7-----9-------| --5----------------|-----------------5----|--7--7--10--10--9--9--10--10--| -------------------|----------------------|------------------------------| --------------------------|--------------------------| --------------------------|--------------------------| --------------------------|--------2-----0-----2-----| --------7-----5-----7-----|--------4--4--2--2--4--4--| --5--5--9--9--7--7--9--9--|--2--2--------------------| --------------------------|--------------------------| ------------------------------|------------------------------| ------------------------------|------------------------------| ------------------------------|------------------------------| --------9-------7-----9-------|--------9-------7-----9-------| --7--7--10--10--9--9--10--10--|--7--7--10--10--9--9--10--10--| ------------------------------|------------------------------| -------------------|-------------------|----------------------| -------------------|-------------------|----------------------| -------------------|-------------------|--5----4----2---------| --5----------------|--7----------------|--7----5----4----5----| --5----------------|--5----------------|-----------------5----| --3----------------|-------------------|----------------------| ----------------------------|----------------------------| ----------------------------|----------------------------| ----------------------------|----------------------------| ------------9---------------|----------------------------| --10--7--7-----7--7--10--7--|--9--7--10--7--9--7--9--10--| ----------------------------|----------------------------| ---------------------------|---------------------------| ---------------------------|---------------------------| ---------------------------|---------------------------| ---------------------------|---------------------------| --7--------10--------9-----|-----10--------7-----9-----| -----8--8------8--8-----8--|--8------8--8-----8-----8--| --------------------------|--------------------------| --------------------------|--------------------------| --------------------------|--------------------------| -----------5--------------|--------------------------| --7-----------------7-----|--9-----7-----9-----7--9--| -----5--5-----5--5-----5--|-----5-----5-----5--------| --------------------------|--------------------------| --------------------------|--------------------------| --------------------2-----|--4--------2--------------| --4--------5--------------|--------------------5-----| -----2--2-----2--2-----2--|-----2--2-----2--2-----2--| --------------------------|--------------------------| -----------7--------------|--------------------------| --8--5--5-----5--5--8--5--|--7--5--8--5--7--5--7--8--| --------------------------|--------------------------| --------------------------|--------------------------| --------------------------|--------------------------| --------------------------|--------------------------| --------------------------|--------------------------| --5--------8--------7-----|-----8--------5-----7-----| -----5--5-----5--5-----5--|--5-----5--5-----5-----5--| --------------------------|--------------------------| --------------------------|--------------------------| --------------------------|--------------------------| -----------3--------------|--2-----------2-----------| --5-----------------5-----|--------5-----------5--7--| -----2--2-----2--2-----2--|-----2-----2-----2--------| --------------------------|--------------------------| --------------------------|--------------------------| --------------------------|--------------------------| -----------3--------5-----|--7--------5--------3-----||--------------------| --7-----------------------|--------------------------||--------------------| -----4--4-----4--4-----4--|-----4--4-----4--4-----4--||*-------------------| --------------------------|--------------------------||*--2----------------| --------------------------|--------------------------||---2----------------| --------------------------|--------------------------||---0----------------| ---------------------|-------------------|---------------------| ---------------------|-------------------|---------------------| ----------------0----|--7----------------|----------------4----| ---------2-----------|--7----------------|---------4-----------| --3------------------|--5----------------|--2------------------| ---------------------|-------------------|---------------------| -------------------|---------------------|-------------------| -------------------|----------------5----|-------------------| --5----------------|---------3-----------|-------------------| --5----------------|--2------------------|--4----------------| --3----------------|---------------------|--4----------------| -------------------|---------------------|--2----------------| ----------------------||---------------------------|-------------------------| ----------------------||---------------------------|-------------------------| ----------------4----*||*--------------------------|-------------------------| ---------4-----------*||*--------7-----5--7--------|--7--5-------------------| --2-------------------||---0--0-----0--------0--0--|--------7--6-------------| ----------------------||---------------------------|----------------5--7--8--| --------------------------|-----------------------||---------------------------| --------------------------|-----------------------||---------------------------| --------------------------|----------------------*||*--------------------------| --------7-----5--7--------|--7--5-----5----------*||*--------------------------| --0--0-----0--------0--0--|--------7--5-----------||---------7-----5--7--------| --------------------------|-----------3-----------||---0--0-----0--------0--0--| 4x -------------------------|--------------------------|-----------------------|| -------------------------|--------------------------|-----------------------|| -------------------------|--------------------------|----------------------*|| -------------------------|--------------------------|-----------3----------*|| --7--5-------------------|--------7-----5--7--------|--7--5-----3-----------|| --------7--6----0--2--3--|--0--0-----0--------0--0--|--------7--1-----------|| 16x ---------------------------|---------------------------|| ---------------------------|---------------------------|| *--------------------------|--------------------------*|| *--5--------4--------5-----|--2--------4--------5-----*|| ------2--2-----2--2-----2--|-----2--2-----2--2-----2---|| ---------------------------|---------------------------|| --------------------------|-----------------------||--------------------------| --------------------------|-----------------------||--------------------------| --------------------------|-----------------------||*-------------------------| --4-----------------------|--------------4--------||*--9----------------------| --2--2--2--2--2--2--2--2--|--2--2--2--2--2--------||---7----7--7--7--7--7--7--| --------------------------|-----------------------||--------------------------| ---------------------------|-------------------------|-------------------------| ---------------------------|-------------------------|-------------------------| ---------------------------|-------------------------|-------------------------| --9-----10-----9-----5--5--|----5--------5--------5--|----5--------5-----------| -----7------7-----7-----3--|----3--3--3--3--3--3--3--|----3--3--3--3--3--------| ---------------------------|-------------------------|-------------------5--3--| -------------------------|--------------------------|-------------------------| -------------------------|--------------------------|-------------------------| -------------------------|--------------------------|-------------------------| -------------------------|--7-----9-----7-----5--7--|-------------5--4--2--4--| --4----------------------|-----0-----0-----0--------|----5--5--5-----------2--| --5----5--5--5--5--5--5--|--------------------------|-------------------------| Em C --------------------------||---0----------------|--0----------------| --------------------------||---0----------------|--1----------------| -------------------------*||*--0----------------|--0----------------| -------------5--4-----4--*||*--2----------------|--2----------------| ----2--2--2--------5------||---2----------------|--3----------------| --------------------------||---0----------------|-------------------| A D B --0----------------|--2--------2---------||------------------------------| --2----------------|--3--------4---------||------------------------------| --2----------------|--2--------4--------*||------------------------------| --2----------------|--0--------4--------*||--------9-------7-----9-------| --0----------------|-----------2---------||--7--7--10--10--9--9--10--10--| -------------------|---------------------||------------------------------| --------------------------|--------------------------| --------------------------|--------------------------| --------------------------|--------2-----0-----2-----| --------7-----5-----7-----|--------4--4--2--2--4--4--| --5--5--9--9--7--7--9--9--|--2--2--------------------| --------------------------|--------------------------| ------------------------------|-------------------------|-------------------| ------------------------------|-------------------------|-------------------| ------------------------------|-------------------------|-------------------| --------9-------7-----9-------|-------------------------|--5----------------| --7--7--10--10--9--9--10--10--|--7--7--10----9----10----|--5----------------| ------------------------------|-------------------------|--3----------------| -------------------|----------------------|------------------------------| -------------------|----------------------|------------------------------| -------------------|--5----4----2---------|------------------------------| --7----------------|--7----5----4----4----|--------9-------7-----9-------| --5----------------|-----------------5----|--7--7--10--10--9--9--10--10--| -------------------|----------------------|------------------------------| --------------------------|--------------------------| --------------------------|--------------------------| --------------------------|--------2-----0-----2-----| --------7-----5-----7-----|--------4--4--2--2--4--4--| --5--5--9--9--7--7--9--9--|--2--2--------------------| --------------------------|--------------------------| ------------------------------|------------------------------| ------------------------------|------------------------------| ------------------------------|------------------------------| --------9-------7-----9-------|--------9-------7-----9-------| --7--7--10--10--9--9--10--10--|--7--7--10--10--9--9--10--10--| ------------------------------|------------------------------| -------------------|-------------------|----------------------| -------------------|-------------------|----------------------| -------------------|-------------------|--5----4----2---------| --5----------------|--7----------------|--7----5----4----5----| --5----------------|--5----------------|-----------------5----| --3----------------|-------------------|----------------------| ----------------------------|----------------------------| ----------------------------|----------------------------| ----------------------------|----------------------------| ------------9---------------|----------------------------| --10--7--7-----7--7--10--7--|--9--7--10--7--9--7--9--10--| ----------------------------|----------------------------| ---------------------------|---------------------------| ---------------------------|---------------------------| ---------------------------|---------------------------| ---------------------------|---------------------------| --7--------10--------9-----|-----10--------7-----9-----| -----8--8------8--8-----8--|--8------8--8-----8-----8--| --------------------------|--------------------------| --------------------------|--------------------------| --------------------------|--------------------------| -----------5--------------|--------------------------| --7-----------------7-----|--9-----7-----9-----7--9--| -----5--5-----5--5-----5--|-----5-----5-----5--------| --------------------------|--------------------------| --------------------------|--------------------------| --------------------2-----|--4--------2--------------| --4--------5--------------|--------------------5-----| -----2--2-----2--2-----2--|-----2--2-----2--2-----2--| --------------------------|--------------------------| -----------7--------------|--------------------------| --8--5--5-----5--5--8--5--|--7--5--8--5--7--5--7--8--| --------------------------|--------------------------| --------------------------|--------------------------| --------------------------|--------------------------| --------------------------|--------------------------| --------------------------|--------------------------| --5--------8--------7-----|-----8--------5-----7-----| -----5--5-----5--5-----5--|--5-----5--5-----5-----5--| --------------------------|--------------------------| --------------------------|--------------------------| --------------------------|--------------------------| -----------3--------------|--2-----------2-----------| --5-----------------5-----|--------5-----------5--7--| -----2--2-----2--2-----2--|-----2-----2-----2--------| --------------------------|--------------------------| --------------------------|--------------------------| --------------------------|--------------------------| -----------3--------5-----|--7--------5--------3-----||--------------------| --7-----------------------|--------------------------||--------------------| -----4--4-----4--4-----4--|-----4--4-----4--4-----4--||*-------------------| --------------------------|--------------------------||*--2----------------| --------------------------|--------------------------||---2----------------| --------------------------|--------------------------||---0----------------| ---------------------|-------------------|---------------------| ---------------------|-------------------|---------------------| ----------------0----|--7----------------|----------------4----| ---------2-----------|--7----------------|---------4-----------| --3------------------|--5----------------|--2------------------| ---------------------|-------------------|---------------------| -------------------|---------------------|-------------------| -------------------|----------------5----|-------------------| --5----------------|---------3-----------|-------------------| --5----------------|--2------------------|--4----------------| --3----------------|---------------------|--4----------------| -------------------|---------------------|--2----------------| ----------------------||--------------------------|-------------------------| ----------------------||--------------------------|-------------------------| ----------------4----*||--------------------------|-------------------------| ---------4-----------*||--------7-----5--7--------|--7--5-------------------| --2-------------------||--0--0-----0--------0--0--|--------7--6-------------| ----------------------||--------------------------|----------------5--7--8--| -------------------|| -------------------|| -------------------|| --7----------------|| --7----------------|| --5----------------||








О сайтеАккордыХит-парадПоискУроки ФорумыИщу песню
ПрограммыСвежачок-сПодпискаСтатьи
Яндекс.Метрика