Табулатура Ber-Linn | Водка, Сникерс И Скейтборд гитара табулатуры уроки тексты песен Ber-Linn текст lyrics песня аккорды песни ноты нота электрогитара струна  
   А Б В Г Д Е Ж З И К Л М Н О П Р С Т У Ф Х Ч Ш Ы Э Ю Я       Разные песни
1-9 A B C D E F G H I J K L M N O P Q R S T U V W Y Z      Все исполнители

    



группа Ber-Linn, Табулатура песни Водка, Сникерс И Скейтборд

Группа: Ber-Linn - другие аккорды (25),   о группе (7 статей),   диски (3),   фотографии (6)
Табулатура песни: Водка, Сникерс И Скейтборд
Просмотров: 1027
Подобрал: Dragoon (d.r.a.g.o.o.n@mail.ru)




    
Водка, сникерс и скейтборд
подобрано: 2man и Dragoon
2man:
< bass solo >
e:---------------------------------
H:---------------------------------
G:-------5-5-5-------3-3-4-5-------
D:-3-3-3-------0-0-0---------------
A:---------------------------------
E:---------------------------------

   F           C           Dm
Я имя твое напишу
             A#  G  C
На стекле
Ты может быть вспомнишь о нас
Обо мне
О том как ходили вдвоем
На каток
О том как любили с тобой
Мы панк-рок
< припев >
  F      C                 Dm      A#           F     C
        Водка сникерс и скейтборд  
                             Dm      A#           F     C
        Водка сникерс и скейтборд 
        Водка сникерс и скейтборд  
        Водка сникерс и скейтборд 
  F      F                       C                                      Dm      G C
        Теперь я играю просто в отличной панк-группе
        И мы собираемся звездами стать
	Героями чартов и топов и всех новостей
	И ты вдруг увидишь меня на волне
	Увидишь меня на волне
< 2 припев на те же аккорды >
Мы играем высший класс
Мы круты любите нас
Мы круты любите нас
Мы круты любите...

Dragoon:
Гитара номер 1(* - глушёные струны):
   * *   *   *  *   * * *   * * * * *  * *   *   *  *   * * *   *
e:------------------------------------------------------------------------
H:------------------------------------------------------------------------
G:----------------5-------7-------3-------------------5-------7---3---3---  4 раза
D:-----3--------5---5---7---7---3---3------3--------5---5---7---7-3---3---
A:---3---3---3--------5-------1----------3---3---3--------5-------1---1---
E:-1-----------------------------------1----------------------------------

F  C  D  Bb   много раз =))



Гитара номер 2:


e:-------------------------------------------------------------------
H:-------------------------------------------------------------------
G:-------------------------------------------------------------------
D:-------------------------------------------------------------------
A:-------------------------------------------------------------------
E:-------------------------------------------------------------------
e:-------------------------------------------------------------------
H:-------------------------------------------------------------------
G:-------------------------------------------------------------------
D:-------------------------------------------------------------------
A:-------------------------------------------------------------------

Продолжаем грести бабос на ботах в Telegram.
Только в этот раз есть вариант автоматизировать это дело, привлекая рефералов. Вы можете заработать если »

E:------------------------------------------------------------------- e:------------------------------------------------------------------- H:------------------------------------------------------------------- G:---------------------------------------------3-2------------------- 2 раза D:-3-3-2-3-3-3---3-3-2-3-3-3---3-3-2-3-3-3---3-----2-3-3-3----------- A:------------------------------------------------------------------- E:------------------------------------------------------------------- e:-------------------------------------------------------6-6-6-6----- H:------------------------------------------------------------------- G:------------------------------------------------------------------- D:------------------------------------------------------------------- A:------------------------------------------------------------------- E:------------------------------------------------------------------- e:-------------------------------------------------------8-6-5------- H:-------------------------------------------------------------8----- G:------------------------------------------------------------------- D:------------------------------------------------------------------- A:------------------------------------------------------------------- E:------------------------------------------------------------------- e:-5-5-6-6-5-5-6-6-5-5-6-6-------5-6-8-6-5--------------------------- H:--6-6-6-6-6-6-6-6-6-6-6-6--6-8-----------8------------------------- G:------------------------------------------------------------------- 2 раза D:------------------------------------------------------------------- A:------------------------------------------------------------------- E:------------------------------------------------------------------- e:------------------------------------------8-6-5-------------------- H:-6-6-5-6-6-6---6-6-5-6-6-6----6-6-5-6-6-6-------8-6-6-------------- 2 раза G:------------------------------------------------------------------- D:------------------------------------------------------------------- A:------------------------------------------------------------------- E:------------------------------------------------------------------- e:-8-6-5---6-5---5--------------------------------------------------- H:-------8-----8---6------------------------------------------------- G:------------------------------------------------------------------- D:------------------------------------------------------------------- A:------------------------------------------------------------------- E:------------------------------------------------------------------- f c d Bb g c Героями чартов и топов и всех новостей f c d Bb Героями чартов и топов и всех новостей < припев > F C D Bb Мы играем высший класс Мы играем высший класс Мы играем высший класс Мы играем высший класс Водка сникерс и скейтборд Водка сникерс и скейтборд Водка сникерс и скейтборд И для всех огромный торт!

Купить лазерный проектор
Широкий выбор проекторов от разных производителей
laserbeam.ru







О сайтеАккордыХит-парадПоискУроки ФорумыИщу песню
ПрограммыСвежачок-сПодпискаСтатьи
Яндекс.Метрика