Табулатура Ber-Linn | Горячая Кровь(official Version) гитара табулатуры уроки тексты песен Ber-Linn текст lyrics песня аккорды песни ноты нота электрогитара струна  
   А Б В Г Д Е Ж З И К Л М Н О П Р С Т У Ф Х Ч Ш Ы Э Ю Я       Разные песни
1-9 A B C D E F G H I J K L M N O P Q R S T U V W Y Z      Все исполнители

    



группа Ber-Linn, Табулатура песни Горячая Кровь(official Version)

Группа: Ber-Linn - другие аккорды (25),   о группе (7 статей),   диски (3),   фотографии (6)
Табулатура песни: Горячая Кровь(official Version)
Просмотров: 839
Подобрал: Ilya (d.r.a.g.o.o.n@mail.ru)




    
BER-LINN - Горячая Кровь
Official version
  Вступление и концовка:
 / соло /
 
  { вступление играть с первого такта и до последнего }
                                  { концовку сразу отсюда }
E||---------------|---------------|-----------------------|-----------------------|-----------------------|
B||---------------|---------------|-----------------------|-----------------------|-----------------------|
G||---------------|---------------|--0--0--5--4------2----|--0--0--5--4------2----|--0--0--5--4------2----|
D||---------------|---------------|-----------------------|-----------------------|-----------------------|
A||---------------|---------------|-----------------------|-----------------------|-----------------------|
E||---------------|---------------|-----------------------|-----------------------|-----------------------|
                                                                                                 
-----------------------|-----------------------|-----------------------|--------------------------|
-----------------------|-----------------------|-----------------------|--------------------------|
--7--7--5--4------2----|--0--0--5--4------2----|--0--0--5--4------2----|--0--0--2--0--4--0--5--0--|
-----------------------|-----------------------|-----------------------|--------------------------|
-----------------------|-----------------------|-----------------------|--------------------------|
-----------------------|-----------------------|-----------------------|--------------------------|
    {в концовке тут тишина}                                                                                               
--------------------------|-----------------------|-----------------------|-----------------------|
--------------------------|-----------------------|-----------------------|-----------------------|
--7--0--5--0--4--0--2--0--|--0--0--5--4------2----|--0--0--5--4------2----|--0--0--5--4------2----|
--------------------------|-----------------------|-----------------------|-----------------------|
--------------------------|-----------------------|-----------------------|-----------------------|
--------------------------|-----------------------|-----------------------|-----------------------|
                                                                                                     
-------------------------|-----------------------|-----------------------|--------------------------|
-------------------------|-----------------------|-----------------------|--------------------------|
--7--7--5--4----5--4--2--|--0--0--5--4------2----|--0--0--5--4------2----|--7--7--5--5--4--4--2--2--|
-------------------------|-----------------------|-----------------------|--------------------------|
-------------------------|-----------------------|-----------------------|--------------------------|
-------------------------|-----------------------|-----------------------|--------------------------|
                                                                                                        
--------------------------|-------------------|
--------------------------|-------------------|
--5--5--4--4--2--2--4--4--|--0----------------|
--------------------------|-------------------|
--------------------------|-------------------|
--------------------------|-------------------|
 / ритм-гитара /
 
  { вступление играть с первого такта и до последнего }
                                          { а концовку отсюда...
     C                   D                   G                   D                   Em                
E||-------------------|-------------------|--3----------------|-------------------|--0----------------|
B||-------------------|-------------------|--3----------------|-------------------|--0----------------|
G||--5----------------|--7----------------|--4----------------|--7----------------|--0----------------|
D||--5----------------|--7----------------|--5----------------|--7----------------|--2----------------|
A||--3----------------|--5----------------|--5----------------|--5----------------|--2----------------|
E||--3----------------|--5----------------|--3----------------|--5----------------|--0----------------|
  C                   G                          D                          Em                       
-------------------|--------------------------|--------------------------|--------------------------|
-------------------|--------------------------|--------------------------|--------------------------|
--5----------------|--4--4--4--4--4--4--4--4--|--7--7--7--7--7--7--7--7--|--0--0--0--0--0--0--0--0--|
--5----------------|--5--5--5--5--5--5--5--5--|--7--7--7--7--7--7--7--7--|--2--2--2--2--2--2--2--2--|
--3----------------|--5--5--5--5--5--5--5--5--|--5--5--5--5--5--5--5--5--|--2--2--2--2--2--2--2--2--|
--3----------------|--3--3--3--3--3--3--3--3--|--5--5--5--5--5--5--5--5--|--0--0--0--0--0--0--0--0--|
    {в концовке тут тишина}
  C                          G                          D                          Em                       
--------------------------|--------------------------|--------------------------|--------------------------|
--------------------------|--------------------------|--------------------------|--------------------------|
--5--5--5--5--5--5--5--5--|--4--4--4--4--4--4--4--4--|--7--7--7--7--7--7--7--7--|--0--0--0--0--0--0--0--0--|
--5--5--5--5--5--5--5--5--|--5--5--5--5--5--5--5--5--|--7--7--7--7--7--7--7--7--|--2--2--2--2--2--2--2--2--|
--3--3--3--3--3--3--3--3--|--5--5--5--5--5--5--5--5--|--5--5--5--5--5--5--5--5--|--2--2--2--2--2--2--2--2--|
--3--3--3--3--3--3--3--3--|--3--3--3--3--3--3--3--3--|--5--5--5--5--5--5--5--5--|--0--0--0--0--0--0--0--0--|
  C                          G                          D                          Em                       

Продолжаем грести бабос на ботах в Telegram.
Только в этот раз есть вариант автоматизировать это дело, привлекая рефералов. Вы можете заработать если »

--------------------------|--------------------------|--------------------------|--------------------------| --------------------------|--------------------------|--------------------------|--------------------------| --5--5--5--5--5--5--5--5--|--4--4--4--4--4--4--4--4--|--7--7--7--7--7--7--7--7--|--0--0--0--0--0--0--0--0--| --5--5--5--5--5--5--5--5--|--5--5--5--5--5--5--5--5--|--7--7--7--7--7--7--7--7--|--2--2--2--2--2--2--2--2--| --3--3--3--3--3--3--3--3--|--5--5--5--5--5--5--5--5--|--5--5--5--5--5--5--5--5--|--2--2--2--2--2--2--2--2--| --3--3--3--3--3--3--3--3--|--3--3--3--3--3--3--3--3--|--5--5--5--5--5--5--5--5--|--0--0--0--0--0--0--0--0--| ...последний такт концовки + G } C G C D G --------------------------|------------------------|------------------------|------------------------| --------------------------|------------------------|------------------------|------------------------| --5--5--5--5--5--5--5--5--|------------------------|--5--5----5--7--7----7--|------------------------| --5--5--5--5--5--5--5--5--|--5--5----5--5--5----5--|--5--5----5--7--7----7--|--5--5----5--5--5----5--| --3--3--3--3--3--3--3--3--|--5--5----5--5--5----5--|--3--3----3--5--5----5--|--5--5----5--5--5----5--| --3--3--3--3--3--3--3--3--|--3--3----3--3--3----3--|--3--3----3--5--5----5--|--3--3----3--3--3----3--| C D G C D G --------------------|------------------------|------------------------|------------------------| --------------------|------------------------|------------------------|------------------------| ----5--------7------|------------------------|--5--5----5--7--7----7--|------------------------| ----5--------7------|--5--5----5--5--5----5--|--5--5----5--7--7----7--|--5--5----5--5--5----5--| ----3--------5------|--5--5----5--5--5----5--|--3--3----3--5--5----5--|--5--5----5--5--5----5--| ----3--------5------|--3--3----3--3--3----3--|--3--3----3--5--5----5--|--3--3----3--3--3----3--| D -------------------|| -------------------|| -------------------|| --4----------------|| --5----------------|| --2----------------||   Куплет G D Em C E||------------------------|------------------------|------------------------|------------------------| B||------------------------|------------------------|------------------------|------------------------| G||------------------------|--7--7----7--7--7----7--|--0--0----0--0--0----0--|--5--5----5--5--5----5--| D||--5--5----5--5--5----5--|--7--7----7--7--7----7--|--2--2----2--2--2----2--|--5--5----5--5--5----5--| A||--5--5----5--5--5----5--|--5--5----5--5--5----5--|--2--2----2--2--2----2--|--3--3----3--3--3----3--| E||--3--3----3--3--3----3--|--5--5----5--5--5----5--|--0--0----0--0--0----0--|--3--3----3--3--3----3--| G D Em C ------------------------|------------------------|------------------------|------------------------| ------------------------|------------------------|------------------------|------------------------| ------------------------|--7--7----7--7--7----7--|--0--0----0--0--0----0--|--5--5----5--5--5----5--| --5--5----5--5--5----5--|--7--7----7--7--7----7--|--2--2----2--2--2----2--|--5--5----5--5--5----5--| --5--5----5--5--5----5--|--5--5----5--5--5----5--|--2--2----2--2--2----2--|--3--3----3--3--3----3--| --3--3----3--3--3----3--|--5--5----5--5--5----5--|--0--0----0--0--0----0--|--3--3----3--3--3----3--| G D Bm Em ------------------------|------------------------|------------------------|------------------------| ------------------------|------------------------|------------------------|------------------------| ------------------------|--7--7----7--7--7----7--|--4--4----4--4--4----4--|------------------------| --5--5----5--5--5----5--|--7--7----7--7--7----7--|--4--4----4--4--4----4--|--2--2----2--2--2----2--| --5--5----5--5--5----5--|--5--5----5--5--5----5--|--2--2----2--2--2----2--|--2--2----2--2--2----2--| --3--3----3--3--3----3--|--5--5----5--5--5----5--|--2--2----2--2--2----2--|--0--0----0--0--0----0--| G D C D G ------------------------|-----------------------|--------------------|-------------------| ------------------------|-----------------------|--------------------|-------------------| ------------------------|--7--7----7--7--7------|--5--------7--------|-------------------| --5--5----5--5--5----5--|--7--7----7--7--7------|--5--------7--------|--5----------------| --5--5----5--5--5----5--|--5--5----5--5--5------|--3--------5--------|--5----------------| --3--3----3--3--3----3--|--5--5----5--5--5------|--3--------5--------|--3----------------|   Припев ("на-на-на") (x8): G D Em C E||--------------------|--------------------| B||--------------------|--------------------| G||-----------7--------|--0------5----5--5--| D||--5--------7--------|--2------5----5--5--| A||--5--------5--------|--2------3----3--3--| E||--3--------5--------|--0------3----3--3--|








О сайтеАккордыХит-парадПоискУроки ФорумыИщу песню
ПрограммыСвежачок-сПодпискаСтатьи
Яндекс.Метрика