Табулатура Ber-Linn | Настя(official Version) гитара табулатуры уроки тексты песен Ber-Linn текст lyrics песня аккорды песни ноты нота электрогитара струна  
   А Б В Г Д Е Ж З И К Л М Н О П Р С Т У Ф Х Ч Ш Ы Э Ю Я       Разные песни
1-9 A B C D E F G H I J K L M N O P Q R S T U V W Y Z      Все исполнители

    



группа Ber-Linn, Табулатура песни Настя(official Version)

Группа: Ber-Linn - другие аккорды (25),   о группе (7 статей),   диски (3),   фотографии (6)
Табулатура песни: Настя(official Version)
Просмотров: 868
Подобрал: Ilya




    
BER-LINN - Настя
Official version
  Соло:
 / соло часть 1 (x2)/
    
E||--------------------------|--------------------------|--------------------------|--------------------------|
B||--------------------------|--------------------------|--------------------------|--------------------------|
G||--4--4--4--4--4--4--4--4--|--------------5--5--4--4--|--------------------------|--7--7--7--7--5--5--5--5--|
D||--------------------------|--7--7--7--7--------------|--5--5--5--5--5--5--5--5--|--------------------------|
A||--------------------------|--------------------------|--------------------------|--------------------------|
E||--------------------------|--------------------------|--------------------------|--------------------------|
 / соло часть 2 (x2)/
    
   --------------------------|--------------------------|--------------------------|--------------------------|
   --------------------------|--------------------------|--------------------------|--------------------------|
   --------------4-----4-----|--------------------------|--------------------------|--------------------------|
   --5--5--5--5-----5-----5--|--4--4--4--4--7--7--4--4--|--5--5--5--5--5--5--5--5--|--4--5--5--5--4--5--5--5--|
   --------------------------|--------------------------|--------------------------|--------------------------|
   --------------------------|--------------------------|--------------------------|--------------------------|
 / ритм-гитара (x4)/
                                                                                                                   
     G                          D                          Em                         C                        
E||--------------------------|--------------------------|--------------------------|--------------------------|
B||--------------------------|--------------------------|--------------------------|--------------------------|
G||--4--4--4--4--4--4--4--4--|--7--7--7--7--7--7--7--7--|--0--0--0--0--0--0--0--0--|--5--5--5--5--5--5--5--5--|
D||--5--5--5--5--5--5--5--5--|--7--7--7--7--7--7--7--7--|--2--2--2--2--2--2--2--2--|--5--5--5--5--5--5--5--5--|
A||--5--5--5--5--5--5--5--5--|--5--5--5--5--5--5--5--5--|--2--2--2--2--2--2--2--2--|--3--3--3--3--3--3--3--3--|
E||--3--3--3--3--3--3--3--3--|--------------------------|--0--0--0--0--0--0--0--0--|--------------------------|
  Второй куплет:
 / бас (x2)/
 
G||--------------------------|--------------------------|--------------------------|--------------------------|

Продолжаем грести бабос на ботах в Telegram.
Только в этот раз есть вариант автоматизировать это дело, привлекая рефералов. Вы можете заработать если »

D||--------------------------|--------------------------|--------------------------|--------------------------| A||--------------------------|--5--5--5--5--5--5--5--5--|--------------------------|--3--3--3--3--3--3--3--3--| E||--3--3--3--3--3--3--3--3--|--------------------------|--0--0--0--0--0--0--0--0--|--------------------------| / гитара (вторая половина)/ G D Em C E||-------------------------|-------------------------|-------------------------|--------------------------| B||-------------------------|-------------------------|-------------------------|--------------------------| G||-------------------------|--7--------7--------7----|--9--------9--------9----|--5--------5--------5--5--| D||--5--------5--------5----|--7--------7--------7----|--9--------9--------9----|--5--------5--------5--5--| A||--5--------5--------5----|--5--5--5--5--5--5--5----|--7--7--7--7--7--7--7----|--3--3--3--3--3--3--3--3--| E||--3--3--3--3--3--3--3----|-------------------------|-------------------------|--------------------------|   Припев (x4): G D C D E||--------------------------|--------------------------|--------------------------|--------------------------| B||--------------------------|--------------------------|--------------------------|--------------------------| G||--------------------------|--7--7--7--7--7--7--7--7--|--5--5--5--5--5--5--5--5--|--7--7--7--7--7--7--7--7--| D||--5--5--5--5--5--5--5--5--|--7--7--7--7--7--7--7--7--|--5--5--5--5--5--5--5--5--|--7--7--7--7--7--7--7--7--| A||--5--5--5--5--5--5--5--5--|--5--5--5--5--5--5--5--5--|--3--3--3--3--3--3--3--3--|--5--5--5--5--5--5--5--5--| E||--3--3--3--3--3--3--3--3--|--------------------------|--------------------------|--------------------------|   Припев №2 (x4): G D C D E||-------------------------|-------------------------|-------------------------|-------------------------| B||-------------------------|-------------------------|-------------------------|-------------------------| G||-------------------------|--7--------7--------7----|--5--------5--------5----|--7--------7--------7----| D||--5--------5--------5----|--7--------7--------7----|--5--------5--------5----|--7--------7--------7----| A||--5--------5--------5----|--5--5--5--5--5--5--5----|--3--3--3--3--3--3--3----|--5--5--5--5--5--5--5----| E||--3--3--3--3--3--3--3----|-------------------------|-------------------------|-------------------------|

vpns.ru







О сайтеАккордыХит-парадПоискУроки ФорумыИщу песню
ПрограммыСвежачок-сПодпискаСтатьи
Яндекс.Метрика