Табулатура Ber-Linn | Или Любовь(official Version) гитара табулатуры уроки тексты песен Ber-Linn текст lyrics песня аккорды песни ноты нота электрогитара струна  
   А Б В Г Д Е Ж З И К Л М Н О П Р С Т У Ф Х Ч Ш Ы Э Ю Я       Разные песни
1-9 A B C D E F G H I J K L M N O P Q R S T U V W Y Z      Все исполнители

    



группа Ber-Linn, Табулатура песни Или Любовь(official Version)

Группа: Ber-Linn - другие аккорды (25),   о группе (7 статей),   диски (3),   фотографии (6)
Табулатура песни: Или Любовь(official Version)
Просмотров: 818
Подобрал: Ilya (d.r.a.g.o.o.n@mail.ru)




    
BER-LINN - Или Любовь
Official version
  Первый куплет:
 / ритм-гитара /
                                               F#m                          D                          
E||---------------------|-------------------|----------------------------|----------------------------|
B||---------------------|-------------------|----------------------------|----------------------------|
G||---------------------|-------------------|----------------------------|--7--7-7--7-7--7--7-7--7-7--|
D||--------------6---7--|--7----------------|--4--4-4--4-4--4--4-4--4-4--|--7--7-7--7-7--7--7-7--7-7--|
A||----------7----------|--7----------------|--4--4-4--4-4--4--4-4--4-4--|--5--5-5--5-5--5--5-5--5-5--|
E||---------------------|--5----------------|--2--2-2--2-2--2--2-2--2-2--|--5--5-5--5-5--5--5-5--5-5--|
  E                                                F#m                          D            E             
----------------------------|-------------------|----------------------------|----------------------------|
----------------------------|-------------------|----------------------------|----------------------------|
--9--9-9--9-9--9--9-9--9-9--|-------------------|----------------------------|--7--7-7--7-7--9--9-9--9-9--|
--9--9-9--9-9--9--9-9--9-9--|--7----------------|--4--4-4--4-4--4--4-4--4-4--|--7--7-7--7-7--9--9-9--9-9--|
--7--7-7--7-7--7--7-7--7-7--|--7----------------|--4--4-4--4-4--4--4-4--4-4--|--5--5-5--5-5--7--7-7--7-7--|
--7--7-7--7-7--7--7-7--7-7--|--5----------------|--2--2-2--2-2--2--2-2--2-2--|--5--5-5--5-5--7--7-7--7-7--|
  A            E              
----------------------------||
----------------------------||
---------------9--9-9--9-9--||
--7--7-7--7-7--9--9-9--9-9--||
--7--7-7--7-7--7--7-7--7-7--||
--5--5-5--5-5--7--7-7--7-7--||
  Припев:
 / ритм-гитара x2 /
     A                            F#m                          D                            E                           
E||----------------------------|----------------------------|----------------------------|----------------------------||
B||----------------------------|----------------------------|----------------------------|----------------------------||
G||----------------------------|----------------------------|--7--7-7--7-7--7--7-7--7-7--|--9--9-9--9-9--9--9-9--9-9--||
D||--7--7-7--7-7--7--7-7--7-7--|--4--4-4--4-4--4--4-4--4-4--|--7--7-7--7-7--7--7-7--7-7--|--9--9-9--9-9--9--9-9--9-9--||
A||--7--7-7--7-7--7--7-7--7-7--|--4--4-4--4-4--4--4-4--4-4--|--5--5-5--5-5--5--5-5--5-5--|--7--7-7--7-7--7--7-7--7-7--||
E||--5--5-5--5-5--5--5-5--5-5--|--2--2-2--2-2--2--2-2--2-2--|--5--5-5--5-5--5--5-5--5-5--|--7--7-7--7-7--7--7-7--7-7--||
  Соло №1 (после первого припева):
 / соло-гитара /
 
E||------------------------|------------------------|----------------------------|----------------------------|
B||------------------------|------------------------|--3--3-2--2-----------------|--5--5-3--3-2---------------|
G||--2-------2-------2--4--|--2-------2-------2--4--|------------4--1--1-2--2-4--|---------------4--4-2--2-1--|
D||------2-------2---------|------4-------4---------|----------------------------|----------------------------|
A||------------------------|------------------------|----------------------------|----------------------------|
E||------------------------|------------------------|----------------------------|----------------------------|
                                                                                                     
------------------------|------------------------|----------------------------|--------------------||
------------------------|--2---3---2----------2--|--3--3-2--2----5--5-3--3-2--|--------------------||
--2-------2-------2--4--|--------------2---4-----|------------4---------------|--2-----------------||
------2-------2---------|------------------------|----------------------------|-----------2--------||
------------------------|------------------------|----------------------------|--------------------||
------------------------|------------------------|----------------------------|--------------------||
 / ритм-гитара (x2)/
 
     A                            F#m                          D            E               A            E              
E||----------------------------|----------------------------|----------------------------|----------------------------||
B||----------------------------|----------------------------|----------------------------|----------------------------||
G||----------------------------|----------------------------|--7--7-7--7-7--9--9-9--9-9--|---------------9--9-9--9-9--||
D||--7--7-7--7-7--7--7-7--7-7--|--4--4-4--4-4--4--4-4--4-4--|--7--7-7--7-7--9--9-9--9-9--|--7--7-7--7-7--9--9-9--9-9--||
A||--7--7-7--7-7--7--7-7--7-7--|--4--4-4--4-4--4--4-4--4-4--|--5--5-5--5-5--7--7-7--7-7--|--7--7-7--7-7--7--7-7--7-7--||
E||--5--5-5--5-5--5--5-5--5-5--|--2--2-2--2-2--2--2-2--2-2--|--5--5-5--5-5--7--7-7--7-7--|--5--5-5--5-5--7--7-7--7-7--||
  Второй куплет:
 / ритм-гитара /
 
                         F#m                          D                            E                          
E||-------------------|----------------------------|----------------------------|----------------------------|
B||-------------------|----------------------------|----------------------------|----------------------------|
G||-------------------|----------------------------|--7--7-7--7-7--7--7-7--7-7--|--9--9-9--9-9--9--9-9--9-9--|
D||--7----------------|--4--4-4--4-4--4--4-4--4-4--|--7--7-7--7-7--7--7-7--7-7--|--9--9-9--9-9--9--9-9--9-9--|
A||--7----------------|--4--4-4--4-4--4--4-4--4-4--|--5--5-5--5-5--5--5-5--5-5--|--7--7-7--7-7--7--7-7--7-7--|
E||--5----------------|--2--2-2--2-2--2--2-2--2-2--|--5--5-5--5-5--5--5-5--5-5--|--7--7-7--7-7--7--7-7--7-7--|
                       F#m                          D            E               A            E              
--------------------|----------------------------|----------------------------|----------------------------||
--------------------|----------------------------|----------------------------|----------------------------||
--14----------------|----------------------------|--7--7-7--7-7--9--9-9--9-9--|---------------9--9-9--9-9--||
--14----------------|--4--4-4--4-4--4--4-4--4-4--|--7--7-7--7-7--9--9-9--9-9--|--7--7-7--7-7--9--9-9--9-9--||
--12----------------|--4--4-4--4-4--4--4-4--4-4--|--5--5-5--5-5--7--7-7--7-7--|--7--7-7--7-7--7--7-7--7-7--||
--------------------|--2--2-2--2-2--2--2-2--2-2--|--5--5-5--5-5--7--7-7--7-7--|--5--5-5--5-5--7--7-7--7-7--||
  Соло №2 (после второго припева):
 / соло-гитара /
 
E||-----------------------------|-----------------------------|-----------------------------|------------------------|
B||-----------------------------|-----------------------------|-----------------------------|------------------------|
G||--6--6-6-6-6-6-6-4--6--7--6--|--6--6-6-6-6-6-6-4--6--7--6--|--6--6-6-6-6-6-6-4--6--7--6--|------------------------|
D||-----------------------------|-----------------------------|-----------------------------|--7----7-9-7-6----------|

Продолжаем грести бабос на ботах в Telegram.
Только в этот раз есть вариант автоматизировать это дело, привлекая рефералов. Вы можете заработать если »

A||-----------------------------|-----------------------------|-----------------------------|---------------7--------| E||-----------------------------|-----------------------------|-----------------------------|------------------------| ---------------------------------------------|---------------------------------------------| --10-9-10-12-10-9-10-12-10-9-10-12-10-9-10-9-|---------------------------------------------| ---------------------------------------------|--11-9-11-13-11-9-11-13-11-9-11-13-11-9-11-9-| ---------------------------------------------|---------------------------------------------| ---------------------------------------------|---------------------------------------------| ---------------------------------------------|---------------------------------------------| -----------------------------|----------------------|| --0--0-0-2--2-2-3--3-2--2-3--|--5--------3---2---0--|| -----------------------------|----------------------|| -----------------------------|----------------------|| -----------------------------|----------------------|| -----------------------------|----------------------|| / ритм-гитара / A F#m D E A E E||----------------------------|----------------------------|----------------------------|----------------------------| B||----------------------------|----------------------------|----------------------------|----------------------------| G||----------------------------|----------------------------|--7--7-7--7-7--9--9-9--9-9--|---------------9--9-9--9-9--| D||--7--7-7--7-7--7--7-7--7-7--|--4--4-4--4-4--4--4-4--4-4--|--7--7-7--7-7--9--9-9--9-9--|--7--7-7--7-7--9--9-9--9-9--| A||--7--7-7--7-7--7--7-7--7-7--|--4--4-4--4-4--4--4-4--4-4--|--5--5-5--5-5--7--7-7--7-7--|--7--7-7--7-7--7--7-7--7-7--| E||--5--5-5--5-5--5--5-5--5-5--|--2--2-2--2-2--2--2-2--2-2--|--5--5-5--5-5--7--7-7--7-7--|--5--5-5--5-5--7--7-7--7-7--| A F#m Hm E ----------------------------|----------------------------|----------------------------|----------------------------|| ----------------------------|----------------------------|----------------------------|----------------------------|| ----------------------------|----------------------------|--4--4-4--4-4--4--4-4--4-4--|--1--1-1--1-1--1--1-1--1-1--|| --7--7-7--7-7--7--7-7--7-7--|--4--4-4--4-4--4--4-4--4-4--|--4--4-4--4-4--4--4-4--4-4--|--2--2-2--2-2--2--2-2--2-2--|| --7--7-7--7-7--7--7-7--7-7--|--4--4-4--4-4--4--4-4--4-4--|--2--2-2--2-2--2--2-2--2-2--|--2--2-2--2-2--2--2-2--2-2--|| --5--5-5--5-5--5--5-5--5-5--|--2--2-2--2-2--2--2-2--2-2--|--2--2-2--2-2--2--2-2--2-2--|--0--0-0--0-0--0--0-0--0-0--||   Припев №3 (гитара + барабаны): / ритм-гитара / A F#m D E||------------------------------|------------------------------|------------------------------| B||------------------------------|------------------------------|------------------------------| G||------------------------------|------------------------------|------7------7------7------7--| D||------7------7------7------7--|------4------4------4------4--|------7------7------7------7--| A||------7------7------7------7--|------4------4------4------4--|--5-5-5--5-5-5--5-5-5--5-5-5--| E||--5-5-5--5-5-5--5-5-5--5-5-5--|--2-2-2--2-2-2--2-2-2--2-2-2--|------------------------------| E A F#m ------------------------------|------------------------------|------------------------------| ------------------------------|------------------------------|------------------------------| ------9------9------9------9--|------------------------------|------------------------------| ------9------9------9------9--|------7------7------7------7--|------4------4------4------4--| --7-7-7--7-7-7--7-7-7--7-7-7--|------7------7------7------7--|------4------4------4------4--| ------------------------------|--5-5-5--5-5-5--5-5-5--5-5-5--|--2-2-2--2-2-2--2-2-2--2-2-2--| D E ------------------------------|-------------------------------|| ------------------------------|-------------------------------|| ------7------7------7------7--|------9------9--9--9-9-9-9-9-9-|| ------7------7------7------7--|------9------9--9--9-9-9-9-9-9-|| --5-5-5--5-5-5--5-5-5--5-5-5--|--7-7-7--7-7-7--7--7-7-7-7-7-7-|| ------------------------------|-------------------------------||   Окончание: / ритм-гитара / A F#m D E A E E||----------------------------|----------------------------|----------------------------|----------------------------| B||----------------------------|----------------------------|----------------------------|----------------------------| G||----------------------------|----------------------------|--7--7-7--7-7--9--9-9--9-9--|---------------9--9-9--9-9--| D||--7--7-7--7-7--7--7-7--7-7--|--4--4-4--4-4--4--4-4--4-4--|--7--7-7--7-7--9--9-9--9-9--|--7--7-7--7-7--9--9-9--9-9--| A||--7--7-7--7-7--7--7-7--7-7--|--4--4-4--4-4--4--4-4--4-4--|--5--5-5--5-5--7--7-7--7-7--|--7--7-7--7-7--7--7-7--7-7--| E||--5--5-5--5-5--5--5-5--5-5--|--2--2-2--2-2--2--2-2--2-2--|--5--5-5--5-5--7--7-7--7-7--|--5--5-5--5-5--7--7-7--7-7--| A F#m D E A E ----------------------------|----------------------------|----------------------------|----------------------------| ----------------------------|----------------------------|----------------------------|----------------------------| ----------------------------|----------------------------|--7--7-7--7-7--9--9-9--9-9--|---------------9--9-9--9-9--| --7--7-7--7-7--7--7-7--7-7--|--4--4-4--4-4--4--4-4--4-4--|--7--7-7--7-7--9--9-9--9-9--|--7--7-7--7-7--9--9-9--9-9--| --7--7-7--7-7--7--7-7--7-7--|--4--4-4--4-4--4--4-4--4-4--|--5--5-5--5-5--7--7-7--7-7--|--7--7-7--7-7--7--7-7--7-7--| --5--5-5--5-5--5--5-5--5-5--|--2--2-2--2-2--2--2-2--2-2--|--5--5-5--5-5--7--7-7--7-7--|--5--5-5--5-5--7--7-7--7-7--| A A -------------------|-------------------|| -------------------|-------------------|| -------------------|--6----------------|| --7----------------|--7----------------|| --7----------------|--7----------------|| --5----------------|--5----------------||

vpns.ru







О сайтеАккордыХит-парадПоискУроки ФорумыИщу песню
ПрограммыСвежачок-сПодпискаСтатьи
Яндекс.Метрика