Табулатура Ber-Linn | Линки(official Version) гитара табулатуры уроки тексты песен Ber-Linn текст lyrics песня аккорды песни ноты нота электрогитара струна  
   А Б В Г Д Е Ж З И К Л М Н О П Р С Т У Ф Х Ч Ш Ы Э Ю Я       Разные песни
1-9 A B C D E F G H I J K L M N O P Q R S T U V W Y Z      Все исполнители

    



группа Ber-Linn, Табулатура песни Линки(official Version)

Группа: Ber-Linn - другие аккорды (25),   о группе (7 статей),   диски (3),   фотографии (6)
Табулатура песни: Линки(official Version)
Просмотров: 1007
Подобрал: Ilya




    
BER-LINN - Линки
Official version
  Вступление:
 / гитара /
    
E||--------------------------|--------------------------|-------------------|
B||--------------------------|--------------------------|-------------------|
G||--------------------------|--------------------------|-------------------|
D||--------5--------5-----5--|--------4--------4-----4--|--5----------------|
A||--3--3-----3--3-----3-----|--5--5-----5--5-----5-----|--5----------------|
E||--------------------------|--------------------------|--3----------------|
 / бас /
                                                                                                                   
G||--------------------------|--------------------------|--------------------|
D||--------------------------|--------------------------|--------------------|
A||--3--3--3--3--3--3--3--3--|--5--5--5--7--7--7--9-----|--10----------------|
E||--------------------------|--------------------------|--------------------|
  Первый куплет:
E||--------------------------|--------------------------|--------------------------|
B||--------------------------|--------------------------|--------------------------|
G||--------------------------|--------------------------|--------------------------|
D||--------------------------|--------------------------|--------5--------5-----5--|
A||--------5--------5-----5--|--------7--------7-----7--|--3--3-----3--3-----3-----|
E||--3--3-----3--3-----3-----|--0--0-----0--0-----0-----|--------------------------|
                                                                                 
--------------------------|--------------------------|--------------------------|
--------------------------|--------------------------|--------------------------|
--------------------------|--------------------------|--------------------------|
--------4--------4-----4--|--------------------------|--------------------------|
--5--5-----5--5-----5-----|--------5--------5-----5--|--------7--------7-----7--|
--------------------------|--3--3-----3--3-----3-----|--0--0-----0--0-----0-----|
                                                                                 
--------------------------|--------------------------|-------------------|
--------------------------|--------------------------|-------------------|
--------------------------|--------------------------|-------------------|
--------5--------5-----5--|--------4--------5--------|--7----------------|
--3--3-----3--3-----3-----|--5--5-----5--5-----5--5--|--5----------------|
--------------------------|--------------------------|-------------------|
  Соло №1:
 / ритм-гитара /
 
     G                          G                          C                 D        D                        
E||--------------------------|--------------------------|--------------------------|--------------------------|
B||--------------------------|--------------------------|--------------------------|--------------------------|
G||--4--4--4--4--4--4--4--4--|--4--4--4--4--4--4--4--4--|--5--5--5--5--5--5--7--7--|--7--7--7--7--7--7--7--7--|
D||--5--5--5--5--5--5--5--5--|--5--5--5--5--5--5--5--5--|--5--5--5--5--5--5--7--7--|--7--7--7--7--7--7--7--7--|
A||--5--5--5--5--5--5--5--5--|--5--5--5--5--5--5--5--5--|--3--3--3--3--3--3--5--5--|--5--5--5--5--5--5--5--5--|
E||--3--3--3--3--3--3--3--3--|--3--3--3--3--3--3--3--3--|--3--3--3--3--3--3--5--5--|--5--5--5--5--5--5--5--5--|
 / соло /
 
E||--------------------------|--------------------------|--------------------------|--------------------------|
B||--------------------------|--------------------------|--------------------------|--------------------------|
G||--7--7--7--4--4--4--5--5--|--5--4--4--4--------------|--7--7--7--4--4--4--5--5--|--5--4--4--4--------------|
D||--------------------------|--------------5--5--------|--------------------------|--------------5--5--7--7--|
A||--------------------------|--------------------5--5--|--------------------------|--------------------------|

Продолжаем грести бабос на ботах в Telegram.
Только в этот раз есть вариант автоматизировать это дело, привлекая рефералов. Вы можете заработать если »

E||--------------------------|--------------------------|--------------------------|--------------------------|   Второй куплет: E||-------------------|------|------|------| B||-------------------|------|------|------| G||-------------------|------|------|------| D||-------------------|------|------|------| A||-------------------|------|------|------| E||--3----------------|------|------|------| G Em C D E||--------------------------|--------------------------|--------------------------|--------------------------| B||--------------------------|--------------------------|--------------------------|--------------------------| G||--------------------------|--------------------------|--------5--------5-----5--|--------7--------7--------| D||--------5--------5-----5--|--------2--------2-----2--|--------5--------5-----5--|--------7--------7--------| A||--------5--------5-----5--|--------2--------2-----2--|--3--3-----3--3-----3--3--|--5--5-----5--5-----5--5--| E||--3--3-----3--3-----3-----|--0--0-----0--0-----0-----|--------------------------|--------------------------| -----------------------------| -----------------------------| --7--------------------------| ---------7-------------------| ----------------5------------| -----------------------------|   Припев (x2): G D Em C E||--------------------------|--------------------------|--------------------------|--------------------------| B||--------------------------|--------------------------|--------------------------|--------------------------| G||--------------------------|--7--7--7--7--7--7--7--7--|--------------------------|--5--5--5--5--5--5--5--5--| D||--5--5--5--5--5--5--5--5--|--7--7--7--7--7--7--7--7--|--2--2--2--2--2--2--2--2--|--5--5--5--5--5--5--5--5--| A||--5--5--5--5--5--5--5--5--|--5--5--5--5--5--5--5--5--|--2--2--2--2--2--2--2--2--|--3--3--3--3--3--3--3--3--| E||--3--3--3--3--3--3--3--3--|--------------------------|--0--0--0--0--0--0--0--0--|--------------------------| G D Em C --------------------------|--------------------------|--------------------------|--------------------------| --------------------------|--------------------------|--------------------------|--------------------------| --------------------------|--7--7--7--7--7--7--7--7--|--------------------------|-----5--5--5--5--5--5--5--| --5--5--5--5--5--5--5--5--|--7--7--7--7--7--7--7--7--|--2--2--2--2--2--2--2--2--|--2--5--5--5--5--5--5--5--| --5--5--5--5--5--5--5--5--|--5--5--5--5--5--5--5--5--|--2--2--2--2--2--2--2--2--|--2--3--3--3--3--3--3--3--| --3--3--3--3--3--3--3--3--|--------------------------|--0--0--0--0--0--0--0--0--|--0-----------------------|   Проигрыш (x2): G G Em C D E||--------------------------|------------------------|--------------------------|------------------------| B||--------------------------|------------------------|--------------------------|------------------------| G||--------------------------|------------------------|--5--5--5--5--5--5--5--5--|--5--5--5--5----7--7----| D||--5--5--5--5--5--5--5--5--|--5--5--5--5----2--2----|--5--5--5--5--5--5--5--5--|--5--5--5--5----7--7----| A||--5--5--5--5--5--5--5--5--|--5--5--5--5----2--2----|--3--3--3--3--3--3--3--3--|--3--3--3--3----5--5----| E||--3--3--3--3--3--3--3--3--|--3--3--3--3----0--0----|--------------------------|------------------------|   Вторая половина третьего куплета (на приглушенных струнах): E||--3--3-----2--2-----2-----|--3--3-----2--2-----2-----|--3--3-----2--2-----2-----|--3--3-----2--2-----2-----| B||--------3--------3-----3--|--------0--------0-----0--|--------1--------1-----1--|--------3--------3-----3--| G||--------------------------|--------------------------|--------------------------|--------------------------| D||--------------------------|--------------------------|--------------------------|--------------------------| A||--------------------------|--------------------------|--------------------------|--------------------------| E||--------------------------|--------------------------|--------------------------|--------------------------|

vpns.ru







О сайтеАккордыХит-парадПоискУроки ФорумыИщу песню
ПрограммыСвежачок-сПодпискаСтатьи
Яндекс.Метрика