Табулатура H.I.M. | Our Diabolikal Rapture гитара табулатуры уроки тексты песен H.I.M. текст lyrics песня аккорды песни ноты нота электрогитара струна  
   А Б В Г Д Е Ж З И К Л М Н О П Р С Т У Ф Х Ч Ш Ы Э Ю Я       Разные песни
1-9 A B C D E F G H I J K L M N O P Q R S T U V W Y Z      Все исполнители in english

    



группа H.I.M., Табулатура песни Our Diabolikal Rapture

Группа: H.I.M. - другие аккорды (273),   о группе (2 статей),   диски (5),   фотографии (82)
Табулатура песни: Our Diabolikal Rapture
Просмотров: 1857
Подобрал: TRianel (trianel@rambler.ru)




    
H.I.M.
"Our Diabolikal Repture"
------------------------
RIFFI
1|--------------------------|
2|--------------------------|
3|--------------------------|
4|--------------------------| * 3
5|--------------------------|
6|-8-0-0-7-0-0-5-0-0-3h5-3~-|
1|--------------------------|
2|--------------------------|
3|--------------------------|
4|-------------------5h7-5~-|
5|--------------------------|
6|-8-0-0-7-0-0-5-0-0--------|
RIFFI
|---------------------------|
|---------------------------|
|---------------------------|
|-5-5-5-5-5-5-5-5-5-5-5-5-5-|
In our diabolikal rapture we live on and on
And death keeps knocking at our door
1|-----------------------------------------------------|
2|-----------------------------------------------------|
3|-----------------------------------------------------|
4|-----------------------------------------------------|
5|-----------------------------------------------------|
6|-8-0-0-7-0------------------5-0-0-3-0----------------|
So we open the door and we die a bit more
We're in love with with death and we die on and on
Dm
Won't you close our eyes
1|-----------------------------------------------------|
2|-----------------------------------------------------|
3|-----------------------------------------------------|
4|-----------------------------------------------------|
5|-----------------------------------------------------|
6|-8-0-0-7-0------------------5-0-0-3-0----------------|
Dm               F
We'll be by your side
RIFFI
|---------------------------|
|---------------------------|

Продолжаем грести бабос на ботах в Telegram.
Только в этот раз есть вариант автоматизировать это дело, привлекая рефералов. Вы можете заработать если »

|---------------------------| |-5-5-5-5-5-5-5-5-5-5-5-5-5-| In your heavenly rapture we die on and on And you keep waiting at our door 1|-----------------------------------------------------| 2|-----------------------------------------------------| 3|-----------------------------------------------------| 4|-----------------------------------------------------| 5|-----------------------------------------------------| 6|-8-0-0-7-0------------------5-0-0-3-0----------------| Yes - we open the door, let us die a bit more Because we're in love with you and we die on and on Dm Won't you close our eyes, eyes 1|-----------------------------------------------------| 2|-----------------------------------------------------| 3|-----------------------------------------------------| 4|-----------------------------------------------------| 5|-----------------------------------------------------| 6|-8-0-0-7-0------------------5-0-0-3-0----------------| Dm F We'll be by your side A#5 G#5 C#5 D#5 Your love is the only thing I live for in this world. Oh, how I wait for the day your heart burns. In these heavenly flames I have already scorched in. F5 I just want you to know I'll always be waiting D5 C5 F5 G5 Your love is the only thing I |--------| |--------| |--------| |--------| |--------| D5 C5 F5 G5 |-5~---1-| live for in this world. Oh, how I wait for the day your heart burns. In these heavenly flames I have already scorched in. I just want you to know I'll always be waiting.








О сайтеАккордыХит-парадПоискУроки ФорумыИщу песню
ПрограммыСвежачок-сПодпискаСтатьи
Яндекс.Метрика