Табулатура Strokes | Trying Your Luck гитара табулатуры уроки тексты песен Strokes текст lyrics песня аккорды песни ноты нота электрогитара струна  
   А Б В Г Д Е Ж З И К Л М Н О П Р С Т У Ф Х Ч Ш Ы Э Ю Я       Разные песни
1-9 A B C D E F G H I J K L M N O P Q R S T U V W Y Z      Все исполнители

    



группа Strokes, Табулатура песни Trying Your Luck

Группа: Strokes - другие аккорды (19),   о группе (7 статей),   диски (9),   фотографии (48)
Табулатура песни: Trying Your Luck
Просмотров: 673
Прислал: NYCgirl (system17@rambler.ru)




    
Trying Your Luck
(INTRO)
       Am          F         Dm         G          Em
E||--0-0---0----1-1---1----1-1---1----3-3---3----0-0---0------------||
B||--1-1---1----1-1---1----3-3---3----0-0---0----0-0---0------------||
G||--2-2---2----3-3---3----2-2---2----0-0---0----0-0---0------------||
D||--2-2---2----2-2---2----0-0---0----0-0---0----2-2---2------------||
A||--0-0---0----2-2---2---------------2-2---2----2-2---2------------||
E||-------------1-1---1---------------3-3---3----0-0---0------------||
E||-----------------------------------------------------------------||
B||-----------------------------------------------------------------||
G||--555555555555555555555554444444444444445555555555555555555------||
D||-----------------------------------------------------------------||
A||-----------------------------------------------------------------||
E||-----------------------------------------------------------------||
(PRE_CHORES)
Rhythum Guitar/Lead Guitar 

Продолжаем грести бабос на ботах в Telegram.
Только в этот раз есть вариант автоматизировать это дело, привлекая рефералов. Вы можете заработать если »

F D C E F D C B E||--1-1--1--2-2--2--1-1--1--0-0--0--1-1--1--2-2--2--1-1--1--2-2--2------|| B||--1-1--1--3-3--3--2-2--2--0-0--0--1-1--1--3-3--3--2-2--2--4-4--4------|| G||--3-3--3--2-2--2--3-3--3--0-0--0--3-3--3--2-2--2--3-3--3--4-4--4------|| D||--2-2--2--0-0--0--3-3--3--2-2--2--2-2--2--0-0--0--3-3--3--4-4--4------|| A||--2-2--2----------0-0--0--2-2--2--2-2--2----------0-0--0--2-2--2------|| E||--1-1--1------------------0-0--0--1-1--1------------------------------|| (Chorus) E||-----------------------------------------------------------------|| B||-----------------------------------------------------------------|| G||-----------------------------------------------------------------|| D||-----------------------------------------------------------------|| A||------------5-88-5-8---3-55-3-5---5-3-0-----5-77-5-7-------------|| E||--3-55-3-5-------------------------------3-----------------------||

guitaretab.comTrying Your Luck







О сайтеАккордыХит-парадПоискУроки ФорумыИщу песню
ПрограммыСвежачок-сПодпискаСтатьи
Яндекс.Метрика