Табулатура Strokes | New York City Cops гитара табулатуры уроки тексты песен Strokes текст lyrics песня аккорды песни ноты нота электрогитара струна  
   А Б В Г Д Е Ж З И К Л М Н О П Р С Т У Ф Х Ч Ш Ы Э Ю Я       Разные песни
1-9 A B C D E F G H I J K L M N O P Q R S T U V W Y Z      Все исполнители

    



группа Strokes, Табулатура песни New York City Cops

Группа: Strokes - другие аккорды (19),   о группе (7 статей),   диски (9),   фотографии (48)
Табулатура песни: New York City Cops
Просмотров: 747
Прислал: NYCgirl (system17@rambler.ru)




    
New York City Cops

MAIN RIFF 
e-----------------------------------
B-----------------------------------
G-----------------------------------
D-----------------------------------
A-----------------------------------
E-5-5-5-5-5-5-5-5-3---0---3---0---3-
ENDING 
e-----------------------------------
B-----------------------------------
G-----------------------------------
D-----------------------------------
A-----------------------------------
E-5-5-5-5-5-5-5-5-7---0---3---0---3-
PRE-CHORUS A
e-----------------------------------------------------
B-14-14-14-14-14-14-14-14-12/14-1414-14-12/14-1414-14-
G-14-14-14-14-14-14-14-14-12/14-1414-14-12/14-1414-14-
D-----------------------------------------------------
A-12-12-12-12-12-12-12-12-10/12-1212-12-10/12-1212-12-
E-----------------------------------------------------
PRE-CHORUS B
e-----------------------------------------------------
B-12-12-12-12-12-12-12-12-10/12-1212-12-10/12-1212-12-
G-12-12-12-12-12-12-12-12-10/12-1212-12-10/12-1212-12-
D-----------------------------------------------------
A-10-10-10-10-10-10-10-10--8/10-1010-10--8/10-1010-10-
E-----------------------------------------------------
PRE-CHORUS C
e-----------------------------------------------------
B-----------------------------------------------------
G-11-11-11-11-11-11-11-11--9/11-1111-11--9/11-1111-11-
D-12-12-12-12-12-12-12-12-10/12-1212-12-10/12-1212-12-
A-12-12-12-12-12-12-12-12-10/12-1212-12-10/12-1212-12-
E-10-10-10-10-10-10-10-10--8/10-1010-10--8/10-1010-10-
PRE-CHORUS D
e-------------------------------------------------
B-------------------------------------------------
G-13-13-13-13-13-13-13-13-13-13-13-13-13-13-13-13-
D-14-14-14-14-14-14-14-14-14-14-14-14-14-14-14-14-
A-14-14-14-14-14-14-14-14-14-14-14-14-14-14-14-14-
E-12-12-12-12-12-12-12-12-12-12-12-12-12-12-12-12-
PRE-CHORUS E
e-------------------------------------
B-------------------------------------
G-12----12----12-12-12-12-12-12-12-12-
D-12----12----12-12-12-12-12-12-12-12-

Продолжаем грести бабос на ботах в Telegram.
Только в этот раз есть вариант автоматизировать это дело, привлекая рефералов. Вы можете заработать если »

A-10----10----10-10-10-10-10-10-10-10- E------------------------------------- CHORUS e-------------------------------------------------- B---8--8--8--8--8--8--8--8--8--8--8--8--8--8--8--8- G---9--9--9--9--9--9--9--9-10-10-10-10-10-10-10-10- x2 D--10-10-10-10-10-10-10-10-10-10-10-10-10-10-10-10- A-------------------------------------------------- D-------------------------------------------------- SOLO e----------------------------10b14---8---7h10-7---7h87h87h87h8-7- B-10b12---10b11--8-10b11-8------------10--------8---------------- G---------------9---------9-------------------------------------- D---------------------------------------------------------------- A---------------------------------------------------------------- E---------------------------------------------------------------- e-8----10----8----10----8-----7---10---7---10---7--- B---10----10---10----10---10----8----8---8----8---8- G--------------------------------------------------- D--------------------------------------------------- A--------------------------------------------------- E--------------------------------------------------- e-8----10----8----10----8-----7---10---7---10---7-8- B---10----10---10----10---10----8----8---8----8----- G--------------------------------------------------- D--------------------------------------------------- A--------------------------------------------------- E--------------------------------------------------- MAIN RIFF REST MAIN RIFF WITH BRIDGE BRIDGE play twice e-------------------------------------- B-5--5--5--5--5--5--5--5---8--5-8--5-8- G-7b-7b-7b-7b-7b-7b-7b-7b--7--4-7--4-7- D-------------------------------------- A-------------------------------------- e-------------------------------------- BRIDGE B e----------------------------------------------------------- B-13-10--1313-10---13-10--1313-10---5--5--5--5--5--5--5--5-- G-12--9--1212--9---12--9--1212--9---7b-7b-7b-7b-7b-7b-7b-7b- D----------------------------------------------------------- A----------------------------------------------------------- E-----------------------------------------------------------

guitaretab.com







О сайтеАккордыХит-парадПоискУроки ФорумыИщу песню
ПрограммыСвежачок-сПодпискаСтатьи
Яндекс.Метрика