Аккорды Strokes | Hard To Explain гитара табулатуры уроки тексты песен Strokes текст lyrics песня аккорды песни ноты нота электрогитара струна  
   А Б В Г Д Е Ж З И К Л М Н О П Р С Т У Ф Х Ч Ш Ы Э Ю Я       Разные песни
1-9 A B C D E F G H I J K L M N O P Q R S T U V W Y Z      Все исполнители

    



группа Strokes, Аккорды песни Hard To Explain

Группа: Strokes - другие аккорды (19),   о группе (7 статей),   диски (9),   фотографии (48)
Аккорды песни: Hard To Explain
Просмотров: 901
Прислал: NYCgirl (system17@rambler.ru)




    
Hard To Explain
Tuning:Standard(eBGDAE)
Intro/Verse
e|-3-3-3-3-3-3-3-3-0-0-0-0-0-0-0-0-3-3-3-3-3-3-3-3-3-3-3-3-3-|
B|-----------------0-0-0-0-0-0-0-0---------------------------|
G|-----------------------------------------------------------|
D|-----------------------------------------------------------|
A|-----------------------------------------------------------|
E|-----------------------------------------------------------|
Verse 2
e|-------------------------------------------------------------------------------------|
B|-----7-------------5--------5--------5-----------------------------------------------|
G|-5-7-----------7-5---5--7-5---5--7-5---5--7--9---------------------------------------|
D|-------7---5-------------------------------------5-7--9--7---5--7---9--7--5--7--9--7-|
A|-------------------------------------------------------------------------------------|
E|-------------------------------------------------------------------------------------|
Pre-Chorus
e|--------------------------------------------------------------|
B|-12-12-12-12-12-12-12-12-12-12--------------------------------|

Продолжаем грести бабос на ботах в Telegram.
Только в этот раз есть вариант автоматизировать это дело, привлекая рефералов. Вы можете заработать если »

G|-12-12-12-12-12-12-12-12-12-12--12-12-12-12-12-12-12-12-12-12-| D|-12-12-12-12-12-12-12-12-12-12--12-12-12-12-12-12-12-12-12-12-| Play 2 more times A|-12-12-12-12-12-12-12-12-12-12--12-12-12-12-12-12-12-12-12-12-| E|--------------------------------14-14-14-14-14-14-14-14-14-14-| Chorus e|-----------------------------------------------------------| B|-----------------------------------------------------------| G|-----------------------------------------------------------| D|----12----10-9----12----10-9----9---------------9----------| A|-10----10------10----10------10---10-12-10---10---10-12-10-| E|-----------------------------------------------------------|

guitaretab.com







О сайтеАккордыХит-парадПоискУроки ФорумыИщу песню
ПрограммыСвежачок-сПодпискаСтатьи
Яндекс.Метрика