Табулатура Strokes | Someday гитара табулатуры уроки тексты песен Strokes текст lyrics песня аккорды песни ноты нота электрогитара струна  
   А Б В Г Д Е Ж З И К Л М Н О П Р С Т У Ф Х Ч Ш Ы Э Ю Я       Разные песни
1-9 A B C D E F G H I J K L M N O P Q R S T U V W Y Z      Все исполнители

    



группа Strokes, Табулатура песни Someday

Группа: Strokes - другие аккорды (19),   о группе (7 статей),   диски (9),   фотографии (48)
Табулатура песни: Someday
Просмотров: 799
Прислал: NYCgirl (system17@rambler.ru)




    
Someday
First part of the verse: Guitar 1
e|----5 / 7----9 / 7----9 / 7----7 / 5--|
B|----5---5----7---7----7---7----5---5--|
G|----6---6----7---7----7---7----6---6--|    repeat 4 times
D|----7---7----7---7----7---7----7---7--|
A|--------------------------------------|
E|--------------------------------------|

Here's the second part of the verse:  Guitar 1
e|--------12--------10-----------9--------7----5--|
B|----14----14----12----12----10----10----7----5--|
G|----------------------------------------7----6--|  X4 then play an E for the chorus
D|----------------------------------------7----7--|
A|------------------------------------------------|
E|------------------------------------------------|
 
First part of verse for Guitar 2, listen to the song to the get the timing right
     

Продолжаем грести бабос на ботах в Telegram.
Только в этот раз есть вариант автоматизировать это дело, привлекая рефералов. Вы можете заработать если »

e|--------------| B|--------------| G|---------7----| repeat 4 times? D|----7----7----| A|----7----5----| E|----5---------| Second part of verse for guitar 2 e|----------------------------| B|----------------------------| G|---------9----11----7-------| D|----7----9----11----7----7--| repeat a lot and then for the chorus play an E A|----7----7----9-----5----7--| E|----5--------------------5--|

guitaretab.com







О сайтеАккордыХит-парадПоискУроки ФорумыИщу песню
ПрограммыСвежачок-сПодпискаСтатьи
Яндекс.Метрика