Табулатура Strokes | The Modern Age гитара табулатуры уроки тексты песен Strokes текст lyrics песня аккорды песни ноты нота электрогитара струна  
   А Б В Г Д Е Ж З И К Л М Н О П Р С Т У Ф Х Ч Ш Ы Э Ю Я       Разные песни
1-9 A B C D E F G H I J K L M N O P Q R S T U V W Y Z      Все исполнители

    



группа Strokes, Табулатура песни The Modern Age

Группа: Strokes - другие аккорды (19),   о группе (7 статей),   диски (9),   фотографии (48)
Табулатура песни: The Modern Age
Просмотров: 653
Прислал: NYCgirl (system17@rambler.ru)




    
The Modern Age
Intro:
e|------------------------|
B|-7--7--7--7--5--5--5--5-|
G|-7--7--7--7--7--7--7--7-| 
D|-7--7--7--7--7--7--7--7-|
A|-7--7--7--7--7--7--7--7-|
E|------------------------|
Verse:
e|------------------------|
B|-7--7--7--7--5--5--5--5-|
G|-7--7--7--7--7--7--7--7-|
D|-7--7--7--7--7--7--7--7-| 
A|-7--7--7--7--7--7--7--7-|
E|------------------------|
Pre-Chorus:
e|-----------------|
B|-3-3-3-3-3-3-3-3-|
G|-4-4-4-4-4-4-4-4-|
D|-5-5-5-5-5-5-5-5-|
A|-----------------|
E|-----------------|
Chorus:
e|-------------------------------------------------------------------
B|-7-7-7-7-7-7-7-7-7-7-7-7-7-7-7-7-7-8-8-8-8-8-8-8-8-8-8-8-8-8-8-8-8-
G|-7-7-7-7-7-7-7-7-7-7-7-7-7-7-7-7-7-7-7-7-7-7-7-7-7-7-7-7-7-7-7-7-7-
D|-7-7-7-7-7-7-7-7-7-7-7-7-7-7-7-7-7-7-7-7-7-7-7-7-7-7-7-7-7-7-7-7-7-
A|-7-7-7-7-7-7-7-7-7-7-7-7-7-7-7-7-7-7-7-7-7-7-7-7-7-7-7-7-7-7-7-7-7-
E|-------------------------------------------------------------------
e|-------------------------------------------------------------------|
B|-7-7-7-7-7-7-7-7-7-7-7-7-7-7-7-7-7-5-5-5-5-5-5-5-5-5-5-5-5-5-5-5-5-|
G|-7-7-7-7-7-7-7-7-7-7-7-7-7-7-7-7-7-7-7-7-7-7-7-7-7-7-7-7-7-7-7-7-7-|
D|-7-7-7-7-7-7-7-7-7-7-7-7-7-7-7-7-7-7-7-7-7-7-7-7-7-7-7-7-7-7-7-7-7-| End of Chorus

Продолжаем грести бабос на ботах в Telegram.
Только в этот раз есть вариант автоматизировать это дело, привлекая рефералов. Вы можете заработать если »

A|-7-7-7-7-7-7-7-7-7-7-7-7-7-7-7-7-7-7-7-7-7-7-7-7-7-7-7-7-7-7-7-7-7-| E|-------------------------------------------------------------------| Solo: e|----------------------------------------------------------------------------------- B|----------------------------------------------------------------------------------- G|-12b-12b-12b-12b-12b-10----10-12-12-12b-10----10-12-12-12b-12-12b-12-12b-12-12b-10- D|------------------------12-----------------12-------------------------------------- A|----------------------------------------------------------------------------------- E|----------------------------------------------------------------------------------- e|----------------------------------------------------------------------------------- B|----------------------------------------------------------------------------------- G|----10-12-------------------------------------------------------------------------- D|-12-------12-12-12-12-12-12-12-12-12-0-10-0-7-0-5-0-3-0-3-0-5-0-7-12-0-10-0-7-0-5-- A|----------------------------------------------------------------------------------- E|----------------------------------------------------------------------------------- e|------------------------------------------------------------------------------------- B|------------------------------------------------------------------------------------- G|---------------------------------------------------------12-0-10-0-7-0-5-0-4-0-4-0-5- D|-0-5-0-3-0-3-0-5-0-7-0-12-0-10-0-7-0-5-0-3-0-3-0-5-0-7-0----------------------------- A|------------------------------------------------------------------------------------- E|------------------------------------------------------------------------------------- e|--------------------------------------------------------------------------------| B|----------------------------------------------------------------14b-14b-14b-----| G|-0-7-0-12-0-10-0-7-0-5-0-4-0-4-0-5-0-7-12b-12b-12-12b-12-12b-12-------------12b-|End D|---------------------------------------12b--------------------------------------|of A|--------------------------------------------------------------------------------|Solo E|--------------------------------------------------------------------------------|

guitaretab.com







О сайтеАккордыХит-парадПоискУроки ФорумыИщу песню
ПрограммыСвежачок-сПодпискаСтатьи
Яндекс.Метрика