Табулатура Metallica | Some Kind Of Monster гитара табулатуры уроки тексты песен Metallica текст lyrics песня аккорды песни ноты нота электрогитара струна  
   А Б В Г Д Е Ж З И К Л М Н О П Р С Т У Ф Х Ч Ш Ы Э Ю Я       Разные песни
1-9 A B C D E F G H I J K L M N O P Q R S T U V W Y Z      Все исполнители in english

    



группа Metallica, Табулатура песни Some Kind Of Monster

Работа в Европе для граждан РФ, Украины, СНГ

  • минимальная зарплата $500.
  • виза и контракт на полгода, возможно продление
  • проживание оплачивает работодатель
  • нужен только загранпаспорт
  • оформление 190 €
  • данное предложение - отличная возможность эмигрировать в Европу и закрепиться здесь навсегда.

  • Мы свяжемся с Вами по WhatsApp или Viber и ответим на любые вопросы.
    на нашем сайте можно почитать подробнее »

    Группа: Metallica - другие аккорды (225),   о группе (32 статей),   диски (11),   фотографии (49)
    Табулатура песни: Some Kind Of Monster
    Просмотров: 1422
    Прислал: xAL (xal@akkords.ru)




        
    "Somekind of monster"
    by Metallica
    written by Hetfield/Ulrich/Hammett/Rock
    available on "St. Anger" album
    tabbed by Tero Saikkonen from Finland!!!
    tsslayer@luukku.com
    st-anger@luukku.com
    
    Guitars Dropped-C tuning (Strings on D) 
    (like all songs in "st. Anger" album, except 
    "Dirty Window"(C#-dropped B) "Invisible Kid"(A#-dropped G#)
    and "The Unnamed Feeling"(C-dropped A#))
    6=C 3=F
    5=G 2=A
    4=C 1=D
    
    INTRO /acoustic
    |------------------------------------------------------|
    |------------------------------------------------------|
    |------------------------------------------------------|
    |------------------------------------------------------|
    |-0----0-0----3--5--0------0--3--5--0--3--5--0--3--5---|
    |-0----0-0----3--5--0------0--3--5--0--3--5--0--3--5---|
    
    |------------------------------------------------------|
    |------------------------------------------------------|
    |------------------------------------------------------|
    |------------------------------------------------------|
    |-0----0-0----3--5--0------0--3--5--0--3--5--0---------|
    |-0----0-0----3--5--0------0--3--5--0--3--5--0---------|
    
    |------------------------------------------------------|
    |------------------------------------------------------|
    |------------------------------------------------------|
    |------------------------------------------------------|
    |-0----0-0----3--5--0------0--3--5--0--3--5--0--3---_--|
    |-0----0-0----3--5--0------0--3--5--0--3--5--0--3--785-|
    
    |------------------------------------------------------|
    |------------------------------------------------------|
    |------------------------------------------------------|
    |------------------------------------------------------|
    |-0----0-0----3--5--0------0--3--5--0--3--5--0---------|
    |-0----0-0----3--5--0------0--3--5--0--3--5--0---------|
    
    ALL BAND
    MAINRIFF /distortion
                        P.M._____       __       __|
    |-----------------------------------------------------| -4-
    |-----------------------------------------------------|  T
    |-----------------------------------------------------|  I
    |-----------------------------------------------------|  M
    |-0----0-0----3--5--0------0--3--5--0--3--5--0--3--5--|  E
    |-0----0-0----3--5--0------0--3--5--0--3--5--0--3--5--|  S
    
    |-------------------|
    |-------------------|
    |-------------------|
    |-------------------|
    |-3-3-3-------------|
    |-3-3-3-------------|
    
    GTR I
    |--------------------------------------------------| 
    |--------------------------------------------------|  
    |--------------------------------------------------|  
    |--------------------------------------------------|  
    |-5--0-----------------------------3-3-3-----------|  -2-
    |-5--0-----------------------------3-3-3-----------|   T
    |                                                  |   I 
    |GTR II                                            |   M
    |--------------------------------------------------|   E
    |-----------------------8--------------------------|   S
    |-----------------------7--------------------------|
    |--------------------------------------------------|
    |--------------------------------------------------|
    |--------------------------------------------------|
    
                               _________________________________________________
    GTR I                     |1,2,3 times             |4th time                |
    |--------------------------------------------------|------------------------|
    |--------------------------------------------------|------------------------|
    |--------------------------------------------------|------------------------|
    |--------------------------------------------------|------------------------|
    |-5--0-----------------------------3-3-3-----------|--------3-3-3-----------| -4-
    |-5--0-----------------------------3-3-3-----------|--------3-3-3-----------|  T
    |                                                  |                        |  I
    |GTR II                                            |                        |  M
    |--------------------------------------------------|-?----------------------|  E
    |--------------------|--------------------|--------|-|----------------------|  S
    |-------------10----12-------------10----12--------|-12---------------------|
    |----12----12-------------12----12-----------------|------------------------|
    |--------------------------------------------------|--------3-3-3-----------|
    |--------------------------------------------------|--------3-3-3-----------|
    
    
      P.M.___________         ____________________________         _______________|
    |--------------------------------------------------------------------------------------| -2-
    |--------------------------------------------------------------------------------------|  T
    |--------------------------------------------------------------------------------------|  I
    |--------------------------------------------------------------------------------------|  M
    |-0-0-0-0-0-0-0-0-3---5---0--------0---0-0-0-0-0-0-0-0-0---3---0-0-0-0-0-0-0-0-3---5---|  E
    |-0-0-0-0-0-0-0-0-3---5---0--------0---0-0-0-0-0-0-0-0-0---3---0-0-0-0-0-0-0-0-3---5---|  S
    
    |-------------------|
    |-------------------|
    |-------------------|
    |-------------------|
    |-3-3-3-------------|
    |-3-3-3-------------|
                               _________________________________________________
    GTR I                     |1,2,3 times             |4th time                |
    |--------------------------------------------------|------------------------|
    |--------------------------------------------------|------------------------|
    |--------------------------------------------------|------------------------|
    |--------------------------------------------------|------------------------|
    |-5--0-----------------------------3-3-3-----------|--------3-3-3-----------| -4-
    |-5--0-----------------------------3-3-3-----------|--------3-3-3-----------|  T
    |                                                  |                        |  I
    |GTR II                                            |                        |  M
    |--------------------------------------------------|-?----------------------|  E
    |--------------------|--------------------|--------|-|----------------------|  S
    |-------------10----12-------------10----12--------|-12---------------------|
    |----12----12-------------12----12-----------------|------------------------|
    |--------------------------------------------------|--------3-3-3-----------|
    |--------------------------------------------------|--------3-3-3-----------|
    
    GTR I
    |--------------------------------------------------| 
    |--------------------------------------------------|  
    |--------------------------------------------------|  
    |--------------------------------------------------|  
    |-5--0-----------------------------3-3-3-----------|  -2-
    |-5--0-----------------------------3-3-3-----------|   T
    |                                                  |   I 
    |GTR II                                            |   M
    |--------------------------------------------------|   E
    |-----------------------8--------------------------|   S
    |-----------------------7--------------------------|
    |--------------------------------------------------|
    |--------------------------------------------------|
    |--------------------------------------------------|
    
      P.M.___________         ____________________________         _______________|
    |--------------------------------------------------------------------------------------| -2-
    |--------------------------------------------------------------------------------------|  T
    |--------------------------------------------------------------------------------------|  I
    |--------------------------------------------------------------------------------------|  M
    |-0-0-0-0-0-0-0-0-3---5---0--------0---0-0-0-0-0-0-0-0-0---3---0-0-0-0-0-0-0-0-3---5---|  E
    |-0-0-0-0-0-0-0-0-3---5---0--------0---0-0-0-0-0-0-0-0-0---3---0-0-0-0-0-0-0-0-3---5---|  S
    
    OTHER GUITARS TACET (silence)
    GTR I plays:
    |--------------------------------------|-2-
    |--------------------------------------| T
    |--------------------------------------| I
    |--------------------------------------| M
    |----------_--------------_------------| E
    |-0----0-10-12-----0----10-12---0------| S
    
    BAND IN
    |--------------------------------------|-4-
    |--------------------------------------| T
    |--------------------------------------| I
    |--------------------------------------| M
    |-0--------_-------0----------_--------| E
    |-0----0-10-12-----0----10-12---0------| S
    
    VERSE
      ("These are the eyes that can?t see me...")
    GTR I
    | |---------------------------------------------------------------------------
    | |--------------------------------------------------------------------------- 
    | |--------------------------------------------------------------------------- 
    | |--------------------------------------------------------------------------- 
    |o|-0--------_-------0----------_--------0----------------0------------------- 
    | |-0----0-10-12-----0----10-12---0------0----0-10-12-----0----10-12---0------ 
    | |                                                                           
    | GTR II            wh/effect                                                 
    | |---------------------------------------------------------------------------
    |o|---------------------------------------------------------------------------
    | |-----------------full*-----------------------------------------------------
    | |-----------------|---------------------------------------------------------
    | |-----------------6---------------------------------------------------------
    | |---------------------------------------------------------------------------
    (* notice that when there reads "full", you have to pull hole
    step that note. in this case, 6 pulls to 8. So the sound 
    is --8--) 
    GTR I
    ---------------------------------------------------------------------------| |
    ---------------------------------------------------------------------------| |
    ---------------------------------------------------------------------------| |
    ---------------------------------------------------------------------------| |    (<-times) 
    -0--------_-------0----------_--------0----------------0-------------------|o|
    -0----0-10-12-----0----10-12---0------0----0-10-12-----0----10-12---0------| |
                                                                               | |
    GTR II            wh/effect                                                | |
    ---------------------------------------------------------------------------| |
    ---------------------------------------------------------------------------|o|
    ------------------full-----------------------------------------------------| |
    ------------------|--------------------------------------------------------| |
    ------------------5--------------------------------------------------------| |
    ---------------------------------------------------------------------------| |
    
    
    |--------------------------------------|
    |--------------------------------------|
    |--------------------------------------|
    |--------------------------------------|
    |----------_------------------_--------|
    |-0----0-10-12-----0----10-12---0------|
    
     P.M._______________________________|
    |---------------------------------------|
    |---------------------------------------|
    |---------------------------------------|
    |---------------------------------------|
    |-0----0----3-3-0----0----0----3-3-0----|
    |-0----0----3-3-0----0----0----3-3-0----|
    
    GTR I         P.M._____________________________________________|
    |-----------------------------------------------------------------|
    |-----------------------------------------------------------------|
    |-----------------------------------------------------------------|
    |-----------------------------------------------------------------|
    |-0----0-3----0---0----0-0----0---0----0-0----0---0----0-0----0---| -2-
    |-0----0-3----0---0----0-0----0---0----0-0----0---0----0-0----0---|  T
    |                                                                 |  I
    GTR II                                                            |  M
    |---------?---------------?---------------?---------------?-------|  E
    |---------|---------------|---------------|---------------|-------|  S
    |--------10--------------10--------------10--------------10-------|
    |-----------------------------------------------------------------|
    |-----------------------------------------------------------------|
    |-----------------------------------------------------------------|
    
    |--------------------------------------|
    |--------------------------------------|
    |--------------------------------------|
    |--------------------------------------|
    |----------_------------------_--------|
    |-0----0-10-12-----0----10-12---0------|
    
    VERSE
      ("These are the legs in circles run...")
    GTR I
    | |---------------------------------------------------------------------------
    | |---------------------------------------------------------------------------
    | |---------------------------------------------------------------------------
    | |---------------------------------------------------------------------------
    |o|-0--------_-------0----------_--------0----------------0-------------------
    | |-0----0-10-12-----0----10-12---0------0----0-10-12-----0----10-12---0------
    | |                                                                           
    | GTR II            wh/effect                                                 
    | |---------------------------------------------------------------------------
    |o|---------------------------------------------------------------------------
    | |-----------------full*-----------------------------------------------------
    | |-----------------|---------------------------------------------------------
    | |-----------------6---------------------------------------------------------
    | |---------------------------------------------------------------------------
    (* notice that when there reads "full", you have to pull 
    hole step that note. in this case, 6 pulls to 8. So the 
    sound is --8--) 
    GTR I
    ---------------------------------------------------------------------------| |
    ---------------------------------------------------------------------------| |
    ---------------------------------------------------------------------------| |
    ---------------------------------------------------------------------------| |    (<-times) 
    -0--------_-------0----------_--------0----------------0-------------------|o|
    -0----0-10-12-----0----10-12---0------0----0-10-12-----0----10-12---0------| |
                                                                               | |
    GTR II -PLAY GTR II THIS ONLY ONE TIME, 2ND TIME PLAY SAME 
    LIKE GTR I DOES-| |
    ---------------------------------------------------------------------------| |
    ---------------------------------------------------------------------------|o|
    ------------------full-----------------------------------------------------| |
    ------------------|--------------------------------------------------------| |
    ------------------5--------------------------------------------------------| |
    ---------------------------------------------------------------------------| |
    
      HP.M.__________________|
    |---------------------------------------| -2-
    |---------------------------------------|  T
    |---------------------------------------|  I
    |---------------------------------------|  M
    |-0-----0-----0---0-----0--1-(1)-2-(2)--|  E
    |-0-----0-----0---0-----0--1-(1)-2-(2)--|  S
    
    ("We the people......")
    | |-----------------------------------------------------------------------| |
    |o|-----------------------------------------------------------------------|o|
    | |-----------------------------------------------------------------------| |
    | |-----------------------------------------------------------------------| |
    |o|-0------------------------------------------------3---5-0-0---5--3---5-|o|
    | |-0------------------------------------------------3---5-0-0---5--3---5-| |
    
    |--------------------------------------------------
    |--------------------------------------------------
    |--------------------------------------------------
    |--------------------------------------------------
    |-0------3---5-0-0----3---5-0-0----3---5-0-3---5---
    |-0------3---5-0-0----3---5-0-0----3---5-0-3---5---
    
    ---------------------------------------------------------|
    ---------------------------------------------------------|
    ---------------------------------------------------------|
    ---------------------------------------------------------|
    -3---5-0-0----3---5-0-0-----3---5-0-0----3---5-0-0---5---|
    -3---5-0-0----3---5-0-0-----3---5-0-0----3---5-0-0---5---|
    
      HP.M.__________________|
    |---------------------------------------| -2-
    |---------------------------------------|  T
    |---------------------------------------|  I
    |---------------------------------------|  M
    |-0-----0-----0---0-----0--1-(1)-2-(2)--|  E
    |-0-----0-----0---0-----0--1-(1)-2-(2)--|  S
    
    MAINRIFF
                               ("Somekind of monster......")
                        P.M._____       __       __|
    |-----------------------------------------------------| -4-
    |-----------------------------------------------------|  T
    |-----------------------------------------------------|  I
    |-----------------------------------------------------|  M
    |-0----0-0----3--5--0------0--3--5--0--3--5--0--3--5--|  E
    |-0----0-0----3--5--0------0--3--5--0--3--5--0--3--5--|  S
    
      P.M.___________         ____________________________         _______________|
    |--------------------------------------------------------------------------------------| -2-
    |--------------------------------------------------------------------------------------|  T
    |--------------------------------------------------------------------------------------|  I
    |--------------------------------------------------------------------------------------|  M
    |-0-0-0-0-0-0-0-0-3---5---0--------0---0-0-0-0-0-0-0-0-0---3---0-0-0-0-0-0-0-0-3---5---|  E
    |-0-0-0-0-0-0-0-0-3---5---0--------0---0-0-0-0-0-0-0-0-0---3---0-0-0-0-0-0-0-0-3---5---|  S
    
    
    GTR I plays:
    |--------------------------------------|-2-
    |--------------------------------------| T
    
    Узнай ВСЕ о своем друге в ВК или FB
    |--------------------------------------| I |--------------------------------------| M |----------_------------------_--------| E |-0----0-10-12-----0----10-12---0------| S BAND IN |--------------------------------------|-4- |--------------------------------------| T |--------------------------------------| I |--------------------------------------| M |-0--------_-------0----------_--------| E |-0----0-10-12-----0----10-12---0------| S VERSE ("This is the face that stones you cold...") GTR I | |--------------------------------------------------------------------------- | |--------------------------------------------------------------------------- | |--------------------------------------------------------------------------- | |--------------------------------------------------------------------------- |o|-0--------_-------0----------_--------0----------------0------------------- | |-0----0-10-12-----0----10-12---0------0----0-10-12-----0----10-12---0------ | | | GTR II wh/effect | |--------------------------------------------------------------------------- |o|--------------------------------------------------------------------------- | |-----------------full*----------------------------------------------------- | |-----------------|--------------------------------------------------------- | |-----------------6--------------------------------------------------------- | |--------------------------------------------------------------------------- (* notice that when there reads "full", you have to pull hole step that note. in this case, 6 pulls to 8. So the sound is --8--) GTR I ---------------------------------------------------------------------------| | ---------------------------------------------------------------------------| | ---------------------------------------------------------------------------| | ---------------------------------------------------------------------------| | (<-times) -0--------_-------0----------_--------0----------------0-------------------|o| -0----0-10-12-----0----10-12---0------0----0-10-12-----0----10-12---0------| | | | GTR II wh/effect | | ---------------------------------------------------------------------------| | ---------------------------------------------------------------------------|o| ------------------full-----------------------------------------------------| | ------------------|--------------------------------------------------------| | ------------------5--------------------------------------------------------| | ---------------------------------------------------------------------------| | |--------------------------------------| |--------------------------------------| |--------------------------------------| |--------------------------------------| |----------_------------------_--------| |-0----0-10-12-----0----10-12---0------| P.M._______________________________| |---------------------------------------| |---------------------------------------| |---------------------------------------| |---------------------------------------| |-0----0----3-3-0----0----0----3-3-0----| |-0----0----3-3-0----0----0----3-3-0----| GTR I P.M._____________________________________________| |-----------------------------------------------------------------| |-----------------------------------------------------------------| |-----------------------------------------------------------------| |-----------------------------------------------------------------| |-0----0-3----0---0----0-0----0---0----0-0----0---0----0-0----0---| -2- |-0----0-3----0---0----0-0----0---0----0-0----0---0----0-0----0---| T | | I GTR II | M |---------?---------------?---------------?---------------?-------| E |---------|---------------|---------------|---------------|-------| S |--------10--------------10--------------10--------------10-------| |-----------------------------------------------------------------| |-----------------------------------------------------------------| |-----------------------------------------------------------------| |--------------------------------------| |--------------------------------------| |--------------------------------------| |--------------------------------------| |----------_------------------_--------| |-0----0-10-12-----0----10-12---0------| VERSE ("This is the test of flesh and soul...") GTR I | |--------------------------------------------------------------------------- | |--------------------------------------------------------------------------- | |--------------------------------------------------------------------------- | |--------------------------------------------------------------------------- |o|-0--------_-------0----------_--------0----------------0------------------- | |-0----0-10-12-----0----10-12---0------0----0-10-12-----0----10-12---0------ | | | GTR II wh/effect | |--------------------------------------------------------------------------- |o|--------------------------------------------------------------------------- | |-----------------full*----------------------------------------------------- | |-----------------|--------------------------------------------------------- | |-----------------6--------------------------------------------------------- | |--------------------------------------------------------------------------- (* notice that when there reads "full", you have to pull hole step that note. in this case, 6 pulls to 8. So the sound is --8--) GTR I ---------------------------------------------------------------------------| | ---------------------------------------------------------------------------| | ---------------------------------------------------------------------------| | ---------------------------------------------------------------------------| | (<-times) -0--------_-------0----------_--------0----------------0-------------------|o| -0----0-10-12-----0----10-12---0------0----0-10-12-----0----10-12---0------| | | | GTR II -PLAY GTR II THIS ONLY ONE TIME, 2ND TIME PLAY SAME LIKE GTR I DOES-| | ---------------------------------------------------------------------------| | ---------------------------------------------------------------------------|o| ------------------full-----------------------------------------------------| | ------------------|--------------------------------------------------------| | ------------------5--------------------------------------------------------| | ---------------------------------------------------------------------------| | HP.M.__________________| |---------------------------------------| -2- |---------------------------------------| T |---------------------------------------| I |---------------------------------------| M |-0-----0-----0---0-----0--1-(1)-2-(2)--| E |-0-----0-----0---0-----0--1-(1)-2-(2)--| S ("We the people......") | |-----------------------------------------------------------------------| | |o|-----------------------------------------------------------------------|o| | |-----------------------------------------------------------------------| | | |-----------------------------------------------------------------------| | |o|-0------------------------------------------------3---5-0-0---5--3---5-|o| | |-0------------------------------------------------3---5-0-0---5--3---5-| | |-------------------------------------------------- |-------------------------------------------------- |-------------------------------------------------- |-------------------------------------------------- |-0------3---5-0-0----3---5-0-0----3---5-0-3---5--- |-0------3---5-0-0----3---5-0-0----3---5-0-3---5--- ---------------------------------------------------------| ---------------------------------------------------------| ---------------------------------------------------------| ---------------------------------------------------------| -3---5-0-0----3---5-0-0-----3---5-0-0----3---5-0-0---5---| -3---5-0-0----3---5-0-0-----3---5-0-0----3---5-0-0---5---| HP.M.__________________| |---------------------------------------| -2- |---------------------------------------| T |---------------------------------------| I |---------------------------------------| M |-0-----0-----0---0-----0--1-(1)-2-(2)--| E |-0-----0-----0---0-----0--1-(1)-2-(2)--| S MAINRIFF ("Somekind of monster......") P.M._____ __ __| |-----------------------------------------------------| -4- |-----------------------------------------------------| T |-----------------------------------------------------| I |-----------------------------------------------------| M |-0----0-0----3--5--0------0--3--5--0--3--5--0--3--5--| E |-0----0-0----3--5--0------0--3--5--0--3--5--0--3--5--| S P.M.___________ ____________________________ _______________| |--------------------------------------------------------------------------------------| -2- |--------------------------------------------------------------------------------------| T |--------------------------------------------------------------------------------------| I |--------------------------------------------------------------------------------------| M |-0-0-0-0-0-0-0-0-3---5---0--------0---0-0-0-0-0-0-0-0-0---3---0-0-0-0-0-0-0-0-3---5---| E |-0-0-0-0-0-0-0-0-3---5---0--------0---0-0-0-0-0-0-0-0-0---3---0-0-0-0-0-0-0-0-3---5---| S |--------------------------------------| |--------------------------------------| |--------------------------------------| |--------------------------------------| |----------_--------------_------------| |-0----0-10-12-----0----10-12---0------| ONLY GTR I PLAYS |-------------------------------------------------------------| -2- |-------------------------------------------------------------| T |-------------------------------------------------------------| I |-------------------------------------------------------------| M |---------8----0-0-0----1------------8----0-0-0----1-1-1----| E |-0----3/-------0-0-0----1----0----3/-------0-0-0----1-1-1----| S ALL BAND |-------------------------------------------------------------| -4- |-------------------------------------------------------------| T |-------------------------------------------------------------| I |-------------------------------------------------------------| M |---------8----0-0-0----1------------8----0-0-0----1-1-1----| E |-0----3/-------0-0-0----1----0----3/-------0-0-0----1-1-1----| S ____________________ |1st |2nd time | |-------------------------------------------|-----------| | |o|-------------------------------------------|-----------|o| | |-------------------------------------------|-----------| | | |-------------------------------------------|-----------| | |o|-0--3--3--0--3--3-----0--3--3--0--3--3-----|-3---___---|o| | |-0--3--3--0--3--3-----0--3--3--0--3--3-----|-3--3-5-3--| | ("This is the cloud that swallows trust......") _________________ /gtr II & bass disappear in this riff/ |1st |2nd time | |-------------------------------------------|-----------| | |o|-------------------------------------------|-----------|o| | |-------------------------------------------|-----------| | | |-------------------------------------------|-----------| | |o|-0--3--3--0--3--3-----0--3--3--0--3--3-----|-3---___---|o| | |-0--3--3--0--3--3-----0--3--3--0--3--3-----|-3--3-5-3--| | ("Ominous, i?m in us......") |------------------------------------------------------------------ |------------------------------------------------------------------ |-----15------14------12------14------15------14------12------14--- |-----13------12------10------12------13------12------10------12--- |-0-------0-------0-------0-------0-------0-------0-------0-------- |-0-------0-------0-------0-------0-------0-------0-------0-------- -------------------------------------------------------------------| -------------------------------------------------------------------| -----16------14------12-------14------------------12---------------| -----14------12------10-------12------------------10---------------| -0-------0-------0--------0----------------------------------------| -0-------0-------0--------0----------------------------------------| ____________________ |1st |2nd time | |-------------------------------------------|-----------| | |o|-------------------------------------------|-----------|o| | |-------------------------------------------|-----------| | | |-------------------------------------------|-----------| | |o|-0--3--3--0--3--3-----0--3--3--0--3--3-----|-3---___---|o| | |-0--3--3--0--3--3-----0--3--3--0--3--3-----|-3--3-5-3--| | ("Ominous, i?m in us......") |------------------------------------------------------------------ |------------------------------------------------------------------ |-----15------14------12------14------15------14------12------14--- |-----13------12------10------12------13------12------10------12--- |-0-------0-------0-------0-------0-------0-------0-------0-------- |-0-------0-------0-------0-------0-------0-------0-------0-------- -------------------------------------------------------------------| -------------------------------------------------------------------| -----16------14------12-------14------------------12---------------| -----14------12------10-------12------------------10---------------| -0-------0-------0--------0----------------------------------------| -0-------0-------0--------0----------------------------------------| |-------------------------------------------------------------| -2- |-------------------------------------------------------------| T |-------------------------------------------------------------| I |-------------------------------------------------------------| M |---------8----0-0-0----1------------8----0-0-0----1-1-1----| E |-0----3/-------0-0-0----1----0----3/-------0-0-0----1-1-1----| S |-------------------| |-------------------| |-------------------| |-------------------| |-0-0-0----1-1-1----| |-0-0-0----1-1-1----| |-----------------------------------------------------------------| |-----------------------------------------------------------------| |-----------------------------------------------------------------| |-----------------------------------------------------------------| |-0---3-0-0-----0---3-0-0-----0-0-0----1-1-1----0-0-0----1-1-1----| |-0---3-0-0-----0---3-0-0-----0-0-0----1-1-1----0-0-0----1-1-1----| |-----------------------------------------------------------| |-----------------------------------------------------------| |-----------------------------------------------------------| |-----------------------------------------------------------| |-0---3-0-0-----0---3-0-0-----0---3-0-0-----0---3-0-3---5---| |-0---3-0-0-----0---3-0-0-----0---3-0-0-----0---3-0-3---5---| |-----------------------------------------------------------| |-----------------------------------------------------------| |-----------------------------------------------------------| |-----------------------------------------------------------| |-0---3-0-0-----0---3-0-0-----------------------------------| |-0---3-0-0-----0---3-0-0-----------------------------------| MAINRIFF ("Somekind of monster......") P.M._____ __ __| |-----------------------------------------------------| -4- |-----------------------------------------------------| T |-----------------------------------------------------| I |-----------------------------------------------------| M |-0----0-0----3--5--0------0--3--5--0--3--5--0--3--5--| E |-0----0-0----3--5--0------0--3--5--0--3--5--0--3--5--| S P.M.___________ ____________________________ _______________| |--------------------------------------------------------------------------------------| -2- |--------------------------------------------------------------------------------------| T |--------------------------------------------------------------------------------------| I |--------------------------------------------------------------------------------------| M |-0-0-0-0-0-0-0-0-3---5---0--------0---0-0-0-0-0-0-0-0-0---3---0-0-0-0-0-0-0-0-3---5---| E |-0-0-0-0-0-0-0-0-3---5---0--------0---0-0-0-0-0-0-0-0-0---3---0-0-0-0-0-0-0-0-3---5---| S |--------------------------------------| -2- |--------------------------------------| T |--------------------------------------| I |--------------------------------------| M |----------_--------------_------------| E |-0----0-10-12-----0----10-12---0------| S |---12--12----------12--12---------12--12----------12--12-------| |-12--12--12--12--12--12--12-----12--12--12--12--12--12--12-----| |---------12--12----------12-------------12--12----------12-----| |---------------------------------------------------------------| |---------------------------------------------------------------| |---------------------------------------------------------------| T H E E N D TABBED BY T E R O S A I K K O N E N contact me to: t s s l a y e r @ l u u k k u . c o m s t - a n g e r @ l u u k k u . c o m AVAILABLE ALL ST. ANGER TABS

    www.fretplay.com
    найти лекарство
    список лекарств






    О сайтеАккордыХит-парадПоискУроки ФорумыИщу песню
    ПрограммыСвежачок-сПодпискаСтатьи
    Яндекс.Метрика