Табулатура Mike Oldfield | Misty гитара табулатуры уроки тексты песен Mike Oldfield текст lyrics песня аккорды песни ноты нота электрогитара струна  
   А Б В Г Д Е Ж З И К Л М Н О П Р С Т У Ф Х Ч Ш Ы Э Ю Я       Разные песни
1-9 A B C D E F G H I J K L M N O P Q R S T U V W Y Z      Все исполнители

    



группа Mike Oldfield, Табулатура песни Misty

Группа: Mike Oldfield - другие аккорды (207),   об исполнителе (3 статей),   диски (26),   фотографии (18)
Табулатура песни: Misty
Просмотров: 1047
Подобрал: squire (cailinsquires@yahoo.ie)




    
Misty
by Mike Oldfield
from Tr3slunas
tabbed by Allen Squires
nokeltaeh@yahoo.ie
           
I
Electric Guitar at 0:45 and 2:18
E--------7------------------7------------------7----------------
B-----8----------8-------8-----8------------8----------7--8--7--
G-----------------------------------9---------------------------
D--9--------9---------9------------------9--------9-------------
A---------------------------------------------------------------
E---------------------------------------------------------------
                                         
-----------7--------7--8--------7--7--
-----7--8-----8-------------10--------
--9--------------9--------------------
--------------------------------------
--------------------------------------

Продолжаем грести бабос на ботах в Telegram.
Только в этот раз есть вариант автоматизировать это дело, привлекая рефералов. Вы можете заработать если »

-------------------------------------- II Electric Guitar at 1:31 E--------------------------------------------------------- B-----0-------------------0----------------0-------------- G--0--------0----------0-----0----------0-----------0----- D----------------2--4-----------2----------------4-----4-- A--------2---------------------------2--------2----------- E--------------------------------------------------------- -------------------------------------------- -----------0-------------------------------- --------0-----0----------------------------- --2--4-----------2-------------------------- -------------------------------------------- --------------------------------------------








О сайтеАккордыХит-парадПоискУроки ФорумыИщу песню
ПрограммыСвежачок-сПодпискаСтатьи
Яндекс.Метрика