Табулатура Эпидемия | Всадник Из Льда  (2) гитара табулатуры уроки тексты песен Эпидемия текст lyrics песня аккорды песни ноты нота электрогитара струна  
   А Б В Г Д Е Ж З И К Л М Н О П Р С Т У Ф Х Ч Ш Ы Э Ю Я       Разные песни
1-9 A B C D E F G H I J K L M N O P Q R S T U V W Y Z      Все исполнители

    



группа Эпидемия, Табулатура песни Всадник Из Льда (2)

Группа: Эпидемия - другие аккорды (138),   о группе (9 статей),   диски (6),   фотографии (18)
Табулатура песни: Всадник Из Льда (2)
Просмотров: 1125
Подобрал: Timophei P. (t_pashin@mail.ru)




    
Группа:Эпидемия
Песня:Всадник из льда
Настройка в Eb (записывал в Powertab'е, кто хочет, могу прислать)
Intro
       Gtr I
                                       3x
||-------------------------------------||
||o-----8-------6---------------------o||
||----7---7---5---5-7---7-8-(8)---8----|| ноты в скобках означают, что они ещё длятся.
||--5-------3---------7---------8---8--||
||o-----------------5-----6-(6)-------o||
||-------------------------------------||
|
|   Gtr II
|                                      3x
||-------------------------------------||
||o-----------------------------------o||
||------3-------2----------------------||
||----5---5---3---3-3---3-5-(5)---5----||
||o-------------------5---------6---6-o||
||--3-------1-------5-----6-(6)--------||
                      
|-------------------------------------|
|-------------------------------------|
|-------12---------10----7---7-8-(8)--|
|----12----12---10----10---7---8-(8)--|
|-10----------8----------5-----6-(6)--|
|-------------------------------------|
|
|-------------------------------------|
|-------------------------------------|
|--------3----------2-----------------|
|-----5-----5----3-----3-3---3-5-(5)--|
|--------------------------5---6-(6)--|
|--3----------1----------5-----6-(6)--|
 Verse
  
  Gtrs I, V
|---------3---------------3-------|---------3---------------6--------|
|-----3-----3---3-----4-----4-----|-3h4-------4---------6-----6------|
|---3---3-----3-----3---3---------|-----5-------5-----7---7----------|
|---------------------------------|-------5-------5------------------|
|-----------------6-----------6-5-|-3--------------------------------|
|-3-------------------------------|-----------------6-----------6-5--|
|---------3---------------3-------|---------3---------------6--------|
|-----3-----3---3-----4-----4-----|-3h4-------4---------6-----6---6--|
|---3---3-----3-----3---3---------|-----5-------5-----7---7-----7----|
|---------------------------------|-------5-------5------------------|
|-----------------6-----------6-5-|-3--------------------------------|
|-3-------------------------------|-----------------6----------------|
|--------------5-----------------3-------|---------5---------------6--------|
|------6----------6----6-----4-----4---4-|-----6-------6-------8-------8----|
|---5------5---------5-----3---3-----3---|---5---5---5---5---7---7---7---7--|
|----------------------------------------|-----------------5----------------|
|-8----------------------6---------------|-8--------------------------------|
|----------------------------------------|----------------------------------|
|
|----------------------------------------|----------------------------------|
|----------------------------------------|----------------------------------|
|----------------------------------------|----------------------------------|
|---7-10-(10)--8h10p=8S7-8---------------|----------------------------------|
|---8-12-(12)-10h12p10S8-6---------------|----------------------------------|
|----------------------------------------|----------------------------------|
                              2/4
|---------3---------------3--|------|
|-----4-------4---------4----|------|
|---3---3---3---3-----5------|------|
|-------------------5--------|------|
|-6---------------3----------|------|
|----------------------------|------|
|
| Gtr III
|----------------------------|------|
|----------------------------|------|
|----------------------------|------|
|----------------------------|-3----|
|----------------------------|-3----|
|----------------------------|-1----|
 Chorus
  GmIII(typeEb)           Cm        Bb    FI
 4/4
  Gtrs I, V
|-3-3-3-3-3-3-3-3-3-3---|-3-3-3-3-3-1-x-x-1-x-x-----|
|-3-3-3-3-3-4-4-4-4-4---|-4-4-4-4-4-3-x-x-1-x-x-----|
|-3-3-3-3-3-3-3-3-3-3---|-5-5-5-5-5-3-x-x-2-x-x-----|
|-5-5-5-5-5-5-5-5-5-5---|-5-5-5-5-5-3-x-x-3-x-x-----|
|-5-5-5-5-5-6-6-6-6-6---|-3-3-3-3-3-1-x-x-3-x-x-----|

Продолжаем грести бабос на ботах в Telegram.
Только в этот раз есть вариант автоматизировать это дело, привлекая рефералов. Вы можете заработать если »

|-3-3-3-3-3-3-3-3-3-3---|-----------------1-x-x-----| | | Gtr III | PM------------| |-----------------------|---------------------------| |-----------------------|---------------------------| |-----------------------|---------------3-------3-2-| |-5---------5-----------|-5-----------3---3---3-----| |-5---------6-----------|-3---------1-------0-------| |-3---------6-----------|---------------------------| GmIII(typeEb) Cm Bb FI |-3-3-3-3-3-3-3-3-3-3----|-3-3-3-3-3-1---x-x-1---x-x-| |-3-3-3-3-3-4-4-4-4-4----|-4-4-4-4-4-3---x-x-1---x-x-| |-3-3-3-3-3-3-3-3-3-3----|-5-5-5-5-5-3---x-x-2---x-x-| |-5-5-5-5-5-5-5-5-5-5----|-5-5-5-5-5-3---x-x-3---x-x-| |-5-5-5-5-5-6-6-6-6-6----|-3-3-3-3-3-1---x-x-3---x-x-| |-3-3-3-3-3-3-3-3-3-3----|-------------------1---x-x-| | | PM------------| |------------------------|---------------------------| |------------------------|---------------------------| |------------------------|---------------3-------3-2-| |-5---------5------------|-5-----------3---3---3-----| |-5---------6------------|-3---------1-------0-------| |-3---------6------------|---------------------------| Verse 2 Gtrs I, V |---------3---------------3-------|---------3---------------6--------| |-----3-------3-------4-----------|-3h4-------4---------6-----6------| |---3---3---3---3---3---3---3-----|-----5-------5-----7---7----------| |---------------------------------|-------5-------5------------------| |-----------------6-----------6-5-|-3--------------------------------| |-3-------------------------------|-----------------6-----------6-5--| |---------3---------------3-------|---------3---------------6--------| |-----3-------3-------4-----------|-3h4-------4---------6-------6----| |---3---3---3---3---3---3---3-----|-----5-------5-----7---7---7---7--| |---------------------------------|-------5-------5------------------| |-----------------6-----------6-5-|-3--------------------------------| |-3-------------------------------|-----------------6----------------| |----------5-------------------------3-------| |-----6---------------6----------4-------4---| |---5---5------5-----------5---3---3---3---3-| |--------------------------------------------| |-8--------------------------6---------------| |--------------------------------------------| | | Gtr II |--------------------------------------------| |--------------------------------------------| |--------------------------------------------| |-------7-10-(10)--8h10p=8S7-8---------------| |-------8-12-(12)-10h12p10S8-6---------------| |--------------------------------------------| |---------5---------------6--------| |-----6-------6-------8-------8----| |---5---5---5---5---7---7---7---7--| |-----------------5----------------| |-8--------------------------------| |----------------------------------| | |----------------------------------| |----------------------------------| |----------------------------------| |----------------------------------| |----------------------------------| |----------------------------------| 2/4 |---------3---------------3--|------| |-----4-------4---------4----|------| |---3---3---3---3-----5------|------| |-------------------5--------|------| |-6---------------3----------|------| |----------------------------|------| | | Gtr III |----------------------------|------| |----------------------------|------| |----------------------------|------| |----------------------------|-3----| |----------------------------|-3----| |----------------------------|-1----| Соло потом допишу.








О сайтеАккордыХит-парадПоискУроки ФорумыИщу песню
ПрограммыСвежачок-сПодпискаСтатьи
Яндекс.Метрика