Табулатура Эпидемия | Эпилог гитара табулатуры уроки тексты песен Эпидемия текст lyrics песня аккорды песни ноты нота электрогитара струна  
   А Б В Г Д Е Ж З И К Л М Н О П Р С Т У Ф Х Ч Ш Ы Э Ю Я       Разные песни
1-9 A B C D E F G H I J K L M N O P Q R S T U V W Y Z      Все исполнители

    



группа Эпидемия, Табулатура песни Эпилог

Группа: Эпидемия - другие аккорды (138),   о группе (9 статей),   диски (6),   фотографии (18)
Табулатура песни: Эпилог
Просмотров: 1287
Подобрал: Timophei P. (t_pashin@mail.ru)




    
Группа:Эпидемия
Песня:Эпилог
Гитары настроены в Eb
 Gtr I - Acoustic G
 Eb|-----4--6-7-6-4-|-2---2-----6-|-4---4---------|-----------|
 Bb|---4------------|---2---2-7---|---0---0-5-4-2-|-----------|
 Gb|----------------|-------------|---------------|-3--4-3----| 
 Db|----------------|-------------|---------------|-----------|
 Ab|----------------|---------6---|---------4-----|-----------|
 Eb|-4--------0-----|-2-----------|-0-------------|-2---------|
 Eb|-----4-6-7---6-4-|-2---2------6--|-4---4-----------|------|
 Hb|---4-------------|---2---2-7-----|---0---0-5---4-2-|------|
 Bb|-4---------------|---------------|-----------------|-3----|
 Db|-----------------|---------------|-----------------|------|
 Ab|-----------------|---------6-----|---------4-------|------|
 Eb|-4-------0-------|-2-------------|-0---------------|-2----|
 Gtr. II - Dist. G - ритм (соло было вподляк подбирать, да и тема лёгкая кому надо - тот сам  подберёт, может ещё подберу)
 Eb|-----------------|-----------------|-----------------|--------------------|

Продолжаем грести бабос на ботах в Telegram.
Только в этот раз есть вариант автоматизировать это дело, привлекая рефералов. Вы можете заработать если »

Hb|-----------------|-----------------|-----------------|--------------------| Bb|-----------------|-----------------|-----------------|--------------------| Db|-----------------|-----------------|-----------------|-8-----8-----8------| Ab|-6-----6-----6---|-2-----2-----2---|-4-----4-----4---|-6-6-6-6-6-6-6-6----| Eb|-4-4-4-4-4-4-4-4-|-0-0-0-0-0-0-0-0-|-2-2-2-2-2-2-2-2-|--------------------| p.m. p.m. p.m. p.m. p.m. p.m. p.m. p.m. p.m. p.m. p.m. p.m. Eb|-----------------|-----------------|--------------------| Hb|-----------------|-----------------|--------------------| Bb|-----------------|-----------------|--------------------| Db|-----------------|-6-----6-----6---|--------------------| Ab|-2-----2-----2---|-4-4-4-4-4-4-4-4-|-4-----4-----4------| Eb|-0-0-0-0-0-0-0-0-|-----------------|-2-2-2-2-2-2-2-2----| p.m. p.m. p.m. p.m. p.m. p.m. p.m. p.m. p.m.








О сайтеАккордыХит-парадПоискУроки ФорумыИщу песню
ПрограммыСвежачок-сПодпискаСтатьи
Яндекс.Метрика