Табулатура Ария | Тореро  (2) гитара табулатуры уроки тексты песен Ария текст lyrics песня аккорды песни ноты нота электрогитара струна  
   А Б В Г Д Е Ж З И К Л М Н О П Р С Т У Ф Х Ч Ш Ы Э Ю Я       Разные песни
1-9 A B C D E F G H I J K L M N O P Q R S T U V W Y Z      Все исполнители in english

    



группа Ария, Табулатура песни Тореро (2)

Работа в Европе для граждан РФ, Украины, СНГ

  • минимальная зарплата $500.
  • виза и контракт на полгода, возможно продление
  • проживание оплачивает работодатель
  • нужен только загранпаспорт
  • оформление 190 €
  • данное предложение - отличная возможность эмигрировать в Европу и закрепиться здесь навсегда.

  • Мы свяжемся с Вами по WhatsApp или Viber и ответим на любые вопросы.
    на нашем сайте можно почитать подробнее »

    Группа: Ария - другие аккорды (629),   о группе (7 статей),   диски (18),   фотографии (92)
    Табулатура песни: Тореро (2)
    Просмотров: 2511
    Прислал: trifon (trifon666@rambler.ru)




        
    Бас начало: (играть 2 раза!)
                                                                             
    E||----------------------|-----------------------|----------------------|
    B||----------------------|-----------------------|----------------------|
    G||--7--------------9----|------------10---------|-------7--------------|
    D||-------0----0---------|--0----0----------0----|--0---------0----0----|
    A||----------------------|-----------------------|----------------------|
    E||----------------------|-----------------------|----------------------|
                                                                          
    -----------------------|----------------------|----------------------|
    -----------------------|----------------------|----------------------|
    --9---------10---------|--5--------------7----|------------9---------|
    -------0----------0----|-------0----0---------|--0----0---------0----|
    -----------------------|----------------------|----------------------|
    -----------------------|----------------------|----------------------|
                                                                         
    ----------------------|----------------------|----------------------|
    ----------------------|----------------------|----------------------|
    -------5--------------|--7---------9---------|--3--------------5----|
    --0---------0----0----|-------0---------0----|-------0----0---------|
    ----------------------|----------------------|----------------------|
    ----------------------|----------------------|----------------------|
                                                                         
    ----------------------|----------------------|----------------------|
    ----------------------|----------------------|----------------------|
    ------------7---------|-------3--------------|--5---------7---------|
    --0----0---------0----|--0---------0----0----|-------0---------0----|
    ----------------------|----------------------|----------------------|
    ----------------------|----------------------|----------------------|
                                                                         
    ----------------------|----------------------|----------------------|
    ----------------------|----------------------|----------------------|
    --2--------------3----|------------2---------|-------3--------------|
    -------0----0---------|--0----0---------0----|--0---------0----0----|
    ----------------------|----------------------|----------------------|
    ----------------------|----------------------|----------------------|
                                   
    ----------------------|------||
    ----------------------|------||
    --2---------3---------|------||
    -------0---------0----|------||
    ----------------------|------||
    ----------------------|------||
    Второй раз вступают гитары:
                                                                            
    E||----------------------|----------------------|----------------------|
    B||----------------------|----------------------|----------------------|
    G||----------------------|----------------------|----------------------|
    D||-----------------7----|--5--------------5----|----------------------|
    A||--5----7----8---------|-------7--------------|--8----5---------5----|
    E||----------------------|------------8---------|------------6---------|
                                    
    ----------------------|-------||
    ----------------------|-------||
    ----------------------|-------||
    ----------------------|-------||
    --7----8----7---------|-------||
    -----------------8----|--5----||
    Припев:
    Гитара 1
                                                                            
    E||----------------------|----------------------|----------------------|
    B||----------------------|----------------------|----------------------|
    G||----------------------|--2----x----x----2----|--x----x----2----x----|
    D||--3-------------------|--2----x----x----2----|--x----x----2----x----|
    A||--1----1----3----1----|----------------------|----------------------|
    E||----------------------|----------------------|----------------------|
                                    
    ----------------------|-------||
    ----------------------|-------||
    --2----x----x----2----|--x----||
    --2----x----x----2----|--x----||
    ----------------------|-------||
    ----------------------|-------||
    Гитара 2
                                                                              
    E||-----------------------|----------------------|-----------------------|
    B||-----------------------|----------------------|-----------------------|
    G||-----------------10----|--9----7----2---------|------------10----9----|
    D||--7---------7----------|-----------------7----|-------7---------------|
    A||-------9---------------|----------------------|--9--------------------|
    E||-----------------------|----------------------|-----------------------|
                   
    -------------||
    -------10----||
    --7----------||
    -------------||
    -------------||
    -------------||
    Бас
                                                                            
    E||----------------------|----------------------|---------------------||
    B||----------------------|----------------------|---------------------||
    G||----------------------|--7----5----3---------|---------------------||
    D||----------------------|----------------------|---------------------||
    A||--1----3----1----0----|-----------------1----|--3----1----0--------||
    E||----------------------|----------------------|---------------------||
    
    Затем две гитары вместе играют: (квинты не стал писать много раз думаю сами разберётесь)
                                                                            
    E||----------------------|----------------------|----------------------|
    B||----------------------|----------------------|----------------------|
    G||----------------------|----------------------|----------------------|
    D||--7----5--------------|----------------------|----------------------|
    A||--5----3----8----7----|--8----7----8----7----|--8----7----5----4----|
    E||----------------------|----------------------|--6----5--------------|
                                                                         
    ----------------------|----------------------|----------------------|
    ----------------------|----------------------|----------------------|
    ----------------------|----------------------|----------------------|
    ----------------------|----------------------|----------------------|
    --5----4----5----4----|--5----8----5----4----|--0----7----5----0----|
    ----------------------|--3----6--------------|----------------------|
                                     
    ------------------------|------||
    ------------------------|------||
    ------------------------|------||
    ------------------------|------||
    --10----7----0----12----|------||
    ------------------------|------||
    Соло:
    Соло 1
                                                             
    
    Узнай ВСЕ о своем друге в ВК или FB
    E||--------------------------|--------------17----------| B||--15----------------21----|--20----18----------20----| G||--------17----16----------|--------------------------| D||--------------------------|--------------------------| A||--------------------------|--------------------------| E||--------------------------|--------------------------| -------------------------|-----------------------|-----------------------| --18---------------------|-----------------------|-----------------------| --------14----10----9----|--7----9----10----9----|------------------7----| -------------------------|-----------------------|--7----9----10---------| -------------------------|-----------------------|-----------------------| -------------------------|-----------------------|-----------------------| ------------------------|------------------------|-----------------------| -------------8----------|-------------10---------|-----------------------| --9----10---------10----|--9----10---------------|--10t---0t---9t---0t---| ------------------------|-------------------7----|-----------------------| ------------------------|------------------------|-----------------------| ------------------------|------------------------|-----------------------| ----------------------|-----------------------|----------------------|------|| ----------------------|-----------------------|----------------------|------|| --7t---0t---6t---0t---|--10t---0t---9t---0t---|--7t---0t---6t---0t---|------|| ----------------------|-----------------------|----------------------|------|| ----------------------|-----------------------|----------------------|------|| ----------------------|-----------------------|----------------------|------|| Соло 2 E||-----------------------|-----------------------|------------------------| B||-----------------------|------------12h---5h---|--12h---5h---12h---5----| G||--10----7----7----6----|--7----9---------------|------------------------| D||-----------------------|-----------------------|------------------------| A||-----------------------|-----------------------|------------------------| E||-----------------------|-----------------------|------------------------| ------|| ------|| ------|| ------|| - Оба соло играть под основную тему!!!! ------|| ------|| Соло в две гит: E||--------------------------|--------------------------| B||--------------------------|--------------14----------| G||--15----14----12----15----|--14----12----------15----| D||--------------------------|--------------------------| A||--------------------------|--------------------------| E||--------------------------|--------------------------| --------------------------|--------------------------| --------14----------------|--17----18----17----18----| --14----------15----14----|--------------------------| --------------------------|--------------------------| --------------------------|--------------------------| --------------------------|--------------------------| --17----15----------------|--------------------------| --------------------------|--------------------------| --------------15----14----|--12----15----14----12----| --------------------------|--------------------------| --------------------------|--------------------------| --------------------------|--------------------------| --------------------------|--------------------------|--------------17--------|| --14----------------14----|--------------17----18----|--17----18--------------|| --------15----14----------|--15----14----------------|------------------------|| --------------------------|--------------------------|------------------------|| --------------------------|--------------------------|------------------------|| --------------------------|--------------------------|------------------------|| Бас: E||----------------------|----------------------|------------------------| B||----------------------|----------------------|------------------------| G||--7---------7---------|--7---------7---------|--10---------10---------| D||-------5---------5----|-------5---------5----|--------8----------8----| A||----------------------|----------------------|------------------------| E||----------------------|----------------------|------------------------| ------------------------|-----------------------|-----------------------| ------------------------|-----------------------|-----------------------| --10---------10---------|--9----7---------------|-----------------------| --------8----------8----|------------10----8----|--7--------------------| ------------------------|-----------------------|-------10----8----7----| ------------------------|-----------------------|-----------------------| -----------------------|----------------------|----------------------| -----------------------|----------------------|----------------------| -----------------------|----------------------|----------------------| -----------------------|----------------------|----------------------| -----------------------|----------------------|----------------------| --10----8----6----5----|--3----3----3----3----|--3----3----3----3----| ----------------------|----------------------|----------------------| ----------------------|----------------------|----------------------| ----------------------|----------------------|----------------------| ----------------------|----------------------|----------------------| ----------------------|----------------------|----------------------| --3----3----3----3----|--3----3----3----3----|--6----6----6----6----| ----------------------|----------------------|----------------------| ----------------------|----------------------|----------------------| ----------------------|----------------------|----------------------| ----------------------|----------------------|----------------------| ----------------------|----------------------|----------------------| --6----6----6----6----|--6----6----6----6----|--6----6----6----6----| ----------------------|----------------------|----------------------| ----------------------|----------------------|----------------------| ----------------------|----------------------|----------------------| ----------------------|----------------------|----------------------| ----------------------|----------------------|----------------------| --5----5----5----5----|--5----5----5----5----|--5----5----5----5----| ----------------------|----------------------|-------|| ----------------------|----------------------|-------|| -----------------9----|----------------------|-------|| ------------7b--------|--7----5--------------|-------|| ----------------------|------------8----7----|--5----|| --5----5--------------|----------------------|-------||

    искать в аптеке
    список лекарств






    О сайтеАккордыХит-парадПоискУроки ФорумыИщу песню
    ПрограммыСвежачок-сПодпискаСтатьи
    Яндекс.Метрика