Табулатура Ария | Потерянный Рай  (3) гитара табулатуры уроки тексты песен Ария текст lyrics песня аккорды песни ноты нота электрогитара струна  
   А Б В Г Д Е Ж З И К Л М Н О П Р С Т У Ф Х Ч Ш Ы Э Ю Я       Разные песни
1-9 A B C D E F G H I J K L M N O P Q R S T U V W Y Z      Все исполнители in english

    



группа Ария, Табулатура песни Потерянный Рай (3)

Работа в Европе для граждан РФ, Украины, СНГ

  • минимальная зарплата $500.
  • виза и контракт на полгода, возможно продление
  • проживание оплачивает работодатель
  • нужен только загранпаспорт
  • оформление 190 €
  • данное предложение - отличная возможность эмигрировать в Европу и закрепиться здесь навсегда.

  • Мы свяжемся с Вами по WhatsApp или Viber и ответим на любые вопросы.
    на нашем сайте можно почитать подробнее »

    Группа: Ария - другие аккорды (629),   о группе (7 статей),   диски (18),   фотографии (92)
    Табулатура песни: Потерянный Рай (3)
    Просмотров: 2275
    Прислал: VIT (vit@programist.ru)




        
    POTERYANNYY RAY
    /---------------------------------------------------------------------------
    / The following is the author\'s own interpretation of the song, to be used -
    / for studying or private use only, removal of any part of this ten line   -
    / header is illegal!!!  Removal of the transcribers name or anything       -
    / relevant to the transcriber is also illegal, as so is the removal of the -
    / place in which the tab was downloaded. Publishing as well as printing of -
    / the tab is illegal without permission of the transcriber and copyright   -
    / owner of the song. Failure to apply to these laws result will in legal   -
    / action from the appropriate parties.                                     -
    /---------------------------------------------------------------------------
                 
     Transcribed by: Little Prince (http://metalscript.homestead.com)
    --------------------------------------------------------------------------------
    Tuning: half-step down (e to eb
                            H to Bb
                            G to Gb
                            D to Db
                            A to Ab
                            E to Eb)
    Tempo: slow (75 bpm)
    INTRO:
    (0:01 - 0:25)
    RIFF 1: (Gtr.1 - acoustic)
             Am7                                D7/A
    Gtr.1Eb|--0-------0-----------0-----------|-0-------0----------0-----------|
         Hb|--8---------8---------8-----------|-7---------7---------7-----------|
         Gb|--9-----------9-------9-----------|-5-----------5-------5-----------|
         Db|--7-------------7-----7-----------|-7-------------7-----7-----------|
         Ab|--0-------------------0-----------|-0-------------------0-----------|
         Eb|----------------------------------|---------------------------------|
           |                                  |                                 |
    SynthEb|----------------------------------|---------------------------------|
         Hb|----------------------------------|---------------------------------|
         Gb|--------------------------9-------|-------------------------9-------|
         Db|--7-------------------------------|-7-------------------------------|
         Ab|----------------------------------|---------------------------------|
         Eb|----------------------------------|---------------------------------|
     
             F/A                                E7          Am
    Gtr.1Eb|--0-------0-----------0-----------|-0-----------0-------------------|
         Hb|--6---------6---------6-----------|-3-----------1-------------------|
         Gb|--5-----------5-------5-----------|-1-----------2-------------------|
         Db|--3-------------3-----3-----------|-2-----------2-------------------|
         Ab|--0-------------------0-----------|-2-----------0-------------------|
         Eb|----------------------------------|-0-------------------------------|
           |                                  |                                 |
    SynthEb|----------------------------------|---------------------------------|
         Hb|----------------------------------|---------------------------------|
         Gb|--------------------------9-------|-7-----------5----------5--7--9--|
         Db|--7-------------------------------|---------------------------------|
         Ab|----------------------------------|---------------------------------|
         Eb|----------------------------------|---------------------------------|
     
             Am7                                D7/A
    Gtr.1Eb|--0-------0-----------0-----------|-0-------0-----------0-----------|
         Hb|--8---------8---------8-----------|-7---------7---------7-----------|
         Gb|--9-----------9-------9-----------|-5-----------5-------5-----------|
         Db|--7-------------7-----7-----------|-7-------------7-----7-----------|
         Ab|--0-------------------0-----------|-0-------------------0-----------|
         Eb|----------------------------------|---------------------------------|
           |                                  |                                 |
    SynthEb|----------------------------------|---------------------------------|
         Hb|----------------------------------|---------------------------------|
         Gb|--------------------------9-------|-------------------------9-------|
         Db|--7-------------------------------|-7-------------------------------|
         Ab|----------------------------------|---------------------------------|
         Eb|----------------------------------|---------------------------------|
     
             F/A                                E7          Am
    Gtr.1Eb|--0-------0-----------0-----------|-7-----------5-------------------|
         Hb|--6---------6---------6-----------|-9-----------5-------------------|
         Gb|--5-----------5-------5-----------|-7-----------5-------------------|
         Db|--3-------------3-----3-----------|-9-----------7-------------------|
         Ab|--0-------------------0-----------|-7-----------0-------------------|
         Eb|----------------------------------|---------------------------------|
           |                                  |                                 |
    SynthEb|----------------------------------|---------------------------------|
         Hb|----------------------------------|---------------------------------|
         Gb|--------------------------9-------|-7-----------5----------5--4-----|
         Db|--7-------------------------------|------------------------------7--|
         Ab|----------------------------------|---------------------------------|
         Eb|----------------------------------|---------------------------------|
    (0:25 - 0:52)
    VERSE 1:
             Am7                                D7/A
    VoiceEb|--------------------------------------------------------------------|
         Hb|---5---------------------------------------------5------------------|
         Gb|--------7-5------7--5-5-------------8-7---5--7-----5----------------|
         Db|-------------7----------------------------------------7--7----------|
         Ab|--------------------------------------------------------------------|
         Eb|-  Ot kraya do kra -aya            nebo v ogne sgora -a -et,   -----|
           |                                  |                                 |
    Gtr.1Eb|--0-------------------------------|-0-----------------------5-------|
         Hb|--8-----------------------8-------|-7---------------------7---7-----|
         Gb|--9---------------------9---9-----|-5-------------------5-------5---|
         Db|--7-------------------7-------7---|-7-------------------------------|
         Ab|--0-------------------------------|-0-------------------------------|
         Eb|----------------------------------|---------------------------------|
     
             F/A                                C               G
    VoiceEb|--------------------------------------------------------------------|
         Hb|---5----------------------------------------------------------------|
         Gb|--------7--5-----7--5-5-----------4-5---5-5--7---7------------------|
         Db|---------------7---------------7------------------------------------|
         Ab|--------------------------------------------------------------------|
         Eb|-- i v nem ischeza -ayut     vse nadezhdy i mechty     -------------|
           |                                  |                                 |
    Gtr.1Eb|--0-----------------------5-------|-3---------------3---------------|
         Hb|--6---------------------6---6-----|-5---------------0---------------|
         Gb|--5-------------------5-------5---|-5---------------0---------------|
         Db|--3-------------------------------|-5---------------0---------------|
         Ab|--0-------------------------------|-3---------------2---------------|
         Eb|----------------------------------|-----------------3---------------|
     
              Am7                              D7/A
                 No ty zasypaesh\',            i angel k tebe sletaet,
    Gtr.1Eb|--0-------------------------------|-0-----------------------5-------|
         Hb|--8-----------------------8-------|-7---------------------7---7-----|
         Gb|--9---------------------9---9-----|-5-------------------5-------5---|
         Db|--7-------------------7-------7---|-7-------------------------------|
         Ab|--0-------------------------------|-0-------------------------------|
         Eb|----------------------------------|---------------------------------|
              F/A                              C            G
                  smahnet tvoi slezy,   i vo sne smeeshsya ty.                             Zasy -
    Gtr.1Eb|--0-----------------------5-------|-3---3-3---3-3-----3-----3-----3-|-3-- 2/4 measure |
         Hb|--6---------------------6---6-----|-5---5-5---5-0-----0-0-0-0-0-0-0-|-0---------------|
         Gb|--5-------------------5-------5---|-5---5-5---5-0-----0-0-0-0-0-0-0-|-0---------------|
         Db|--3-------------------------------|-5---5-5---5-0-----0-0-0-0-0-0-0-|-0---------------|
         Ab|--0-------------------------------|-3---3-3---3-2-----2-----2-------|-2---------------|
         Eb|----------------------------------|-------------3-----3-----3-------|-3---------------|
    (0:52 - 1:14)
    CHORUS:
              F             G                  Am
    VoiceEb|--------------------------------------------------------------------|
         Hb|--------------------------------------------------------------5-----|
         Gb|--5-----------5-7--7--5--7--7----5-4---5-4----------------------7---|
         Db|-----7-----7-------------------------------7------------------------|
         Ab|--------------------------------------------------------------------|
         Eb|-pa -ay,  na rukah u menya za - sypa - a-a-ay.               Zasy- -|
           |                                  |                                 |
    Gtr.1Eb|----------------3---3-----3-------|---------------------------------|
         Hb|--1-------1-1-1-3---3---3-3---1p0-|-1-------1p0---0---1-----1p0-----|
         Gb|--2-------2-2-2-0---0---0-0-------|-2-------2-----2---2-----2-------|
         Db|--3-------3-3-3-------------------|-2---2-2-2---2-2---2---2-2---x-x-|
         Ab|--3-----3-3-3-3-------------------|-0---0-0-0---0-0---0---0-0---x-x-|
         Eb|--1-----1-1-1-1-------------------|---------------------------------|
     
              F             G                  Am
    VoiceEb|--------------------------------------------------------------------|
         Hb|------------------------------------5-------------------------5-----|
         Gb|--5----------------7----7--7---5--------------------------------7---|
         Db|-----7--------------------------------------------------------------|
         Ab|--------------------------------------------------------------------|
         Eb|-pa -ay           pod  pen\'e  dozhdya.                      Dale -  |
           |                                  |                                 |
    Gtr.1Eb|----------------3---3-----3-------|---------------------------------|
         Hb|--1-------1-1-1-3---3---3-3---1p0-|-1-------1p0---0---1-----1p0-----|
         Gb|--2-------2-2-2-0---0---0-0-------|-2-------2-----2---2-----2-------|
         Db|--3-------3-3-3-------------------|-2---2-2-2---2-2---2---2-2---x-x-|
         Ab|--3-----3-3-3-3-------------------|-0---0-0-0---0-0---0---0-0---x-x-|
         Eb|--1-----1-1-1-1-------------------|---------------------------------|
     
              F             G                Asus2     G/H      C      C/D  
    VoiceEb|--------------------------------------------------------------------|
         Hb|--------------------------------------------------------------5-----|
         Gb|--5------------5--7-7--5---7-7--5---4---------------5------------7--|
         Db|-----7----7---------------------------------------------------------|
         Ab|--------------------------------------------------------------------|
         Eb|-ko -o,  tam gde neba konchaetsya kra       -       ay,      ty nay-|
           |                                  |                                 |
    Gtr.1Eb|----------------3---3-----3-3-----|---------------------------------|
         Hb|--1-------1-1-1-3---3---3-3-3-----|-0-------0-------1-------3-------|
         Gb|--2-------2-2-2-0---0---0-0-0-----|-2-------0-------0-------0-------|
         Db|--3-------3-3-3-----------------x-|-2-------0-------2-------2-------|
         Ab|--3-----3-3-3-3-----------------x-|-0-------2-------3-------3-------|
         Eb|--1-----1-1-1-1-------------------|---------------------------------|
     
             F               G      
    VoiceEb|----------------------------------|
         Hb|----------------------------------|
         Gb|--5--------------------4-4--------|
         Db|-----7----------------------7--5--|
         Ab|----------------------------------|
         Eb|-de -esh\'             poteryannyy |
           |                                  |
    Gtr.1Eb|--1---------------3---------------|
         Hb|--1-----3---3-----3---R-----------|
         Gb|--2-----2---2-----4---E-----------|
         Db|--3---x---------x-5---S-----------|
         Ab|----------------------T-----------|
         Eb|----------------------------------|
    (1:14 - 1:27)
    RIFF 2: (Lead gtr. w/distortion)
    VoiceEb|---------------------------------------------------------------------------------------------------|
         Hb|---------------------------------------------------------------------------------------------------|
         Gb|---------------------------------------------------------------------------------------------------|
         Db|--7------------------------------------------------------------------------------------------------|
         Ab|---------------------------------------------------------------------------------------------------|
         Eb| ray...   -----------------------------------------------------------------------------------------|
           |                                                 |                                                 |
    Gtr.1Eb|-0-----------0-----------------0-----------------|-0-----------0-----------------0-----------------|
         Hb|-8--------------8--------------8-----------------|-7--------------7--------------7-----------------|
         Gb|-9-----------------9-----------9-----------------|-5-----------------5-----------5-----------------|
         Db|-7--------------------7--------7-----------------|-7--------------------7--------7-----------------|
         Ab|-0-----------------------------0-----------------|-0-----------------------------0-----------------|
         Eb|-------------------------------------------------|-------------------------------------------------|
           |                                                 |                                                 |
    Lead Eb|-------------------------------------------------|-------------------------------------------------|
         Hb|-10~~~~~~~~~~~~~~--------------------12--10--12--|-12b13rel12b13~~~~~~~~~~-------------13--10------|
         Gb|-------------------------------------------------|---------------------------------------------11--|
         Db|-------------------------------------------------|-------------------------------------------------|
         Ab|-------------------------------------------------|-------------------------------------------------|
         Eb|-------------------------------------------------|-------------------------------------------------|
           |                                                 |                                                 |
    Bass Gb|-------------------------------------------------|-------------------------------------5-p4--2-----|
         Db|-------------------------------------------5-----|-7-----------------------------------------------|
         Ab|-0-----------------------------------5-h7--------|-------------------------------------------------|
         Eb|-------------------------------------------------|-------------------------------------------------|
     
    Gtr.1Eb|-0-----------0-----------------0-----------------|-0-----------------0-----------------------------|
         Hb|-6--------------6--------------6-----------------|-3-----------------1-----------------------------|
         Gb|-5-----------------5-----------5-----------------|-1-----------------2-----------------------------|
         Db|-3--------------------3--------3-----------------|-2-----------------2-----------------------------|
         Ab|-0-----------------------------0-----------------|-2-----------------0-----------------------------|
         Eb|-------------------------------------------------|-0-----------------------------------------------|
           |                                                 |                                                 |
    Lead Eb|------------------------------------/17--19--20--|-19----17-17-------17----------------------------|
         Hb|-13b15rel13b15~~~~~~~----------------------------|----------------20-------------------------------|
         Gb|-------------------------------------------------|-------------------------------------------------|
         Db|-------------------------------------------------|-------------------------------------------------|
         Ab|-------------------------------------------------|-------------------------------------------------|
         Eb|-------------------------------------------------|-------------------------------------------------|
           |                                                 |                                                 |
    Bass Gb|-------------------------------------------------|-------------------------------------------------|
         Db|-3-----------------------------------------------|-------------------------------------------------|
         Ab|-------------------------------------------------|-5------------------0----------------------------|
         Eb|-------------------------------------------------|-------------------------------------------------|
    (1:27 - 1:54)
    VERSE 2: (like verse 1 + here is bass)
               Vo sne hitryy de - mon          mozhet proyiti  skvoz\' steny
    Bass Gb|----------------------------------|-------------------------5p4-2---|
         Db|------------------------------5---|-7-------------------------------|
         Ab|--0-----------------------5h7-----|---------------------------------|
         Eb|----------------------------------|---------------------------------|
               dy - hanye   u spyaschih    on ume -et  pohischat\'.
    Bass Gb|----------------------------------|---------------------------------|
         Db|--3-------------------------------|---------------------------------|
         Ab|----------------------------------|-3---------------5---------------|
         Eb|----------------------------------|---------------------------------|
                 Boyatsya ne na - do,       dusha moya bu - det ryadom
    Bass Gb|----------------------------------|---------------------0h2-5p4-2---|
         Db|------------------------------5---|-7-------------------------------|
         Ab|--0-----------------------5h7-----|---------------------------------|
         Eb|----------------------------------|---------------------------------|
                 tvoi  snovidenya       do rassveta   ohranyat\'.                           Zasy -
    Bass Gb|----------------------------------|---------------------------------|-- 2/4 measure --|
         Db|--3-------------------------------|---------------------------------|-----------------|
         Ab|----------------------------------|-3-----------5-------------------|-----------------|
         Eb|----------------------------------|---------------------------------|-----------------|
    (1:54 - 2:16) CHORUS 2 (just like Chorus 1 + there\'s also bass)
            -pa -ay,  na rukah u menya za - sypa - a-a-ay.               Zasy-
    Bass Gb|----------------------------------|-----------------0h2-2h4-5p4p2p0-|
         Db|----------------------------------|-------------0h2-----------------|
         Ab|----------------------------------|-0-------------------------------|
         Eb|--1---------------3---------------|---------------------------------|
            -pa -ay           pod  pen\'e  dozhdya.                      Dale -
    Bass Gb|----------------------------------|-0h2-2/4-4/5-5/7-7\\5-5\\4-4\\2-2p0-|
         Db|--3---------------5---------------|---------------------------------|
         Ab|----------------------------------|---------------------------------|
         Eb|----------------------------------|---------------------------------|
            -ko -o,  tam gde neba konchaetsya kra       -       ay,      ty nay-
    Bass Gb|----------------------------------|---------------------------------|
         Db|--3---------------5---------------|---------------------------------|
         Ab|----------------------------------|-0-------2-------3-------5-------|
         Eb|----------------------------------|---------------------------------|
            -de -esh\'             poteryannyy 
    Bass Gb|----------------------R-----------|
         Db|----------------------E-----------|
         Ab|----------------------S-----------|
         Eb|--1---------------3---T-----------|
    (2:16 - 3:13)
    SOLO 1:
    Gtr.3Eb|-------------------------------------------------|-------------------------------------------------|
         Hb|-------------------------------------------------|-------------------5-----4--5--------------------|
         Gb|-------------------5-----4--5--------------------|-------------------------------5-----------------|
         Db|-7-----------------------------7-----------------|-7-----------------------------------------------|
         Ab|-------------------------------------------------|-------------------------------------------------|
    
    Узнай ВСЕ о своем друге в ВК или FB
    Eb|-------------------------------------------------|-------------------------------------------------| | | | Gtr.2Eb|-------------------------------------------------|-------------------------------------------------| Hb|-------------------------------------------------|-------------------------------------------------| Gb|-------------------------------------------------|-------------------------------------------------| Db|-7--------------------------7--------7-----------|-5--------------------------5--------5-----------| Ab|-7--------------------------7--------7-----------|-5--------------------------5--------5-----------| Eb|-5-----------------------5--5-----5--5-----5--0--|-3-----------------------3--3-----3--3-----3--0--| . . . . . . . . Gtr.3Eb|-------------------------------------------------|-------------------------------------------------| Hb|-------------------------------------------5-----|-4--5--------------------------------------------| Gb|-------------------5-----4--5--------------------|-------5-----4--5--------------------------------| Db|-7-----------------------------7-----------------|-------------------7-----6--7--------------------| Ab|-------------------------------------------------|-------------------------------7-----------------| Eb|-------------------------------------------------|-------------------------------------7h8/x-------| | | | Gtr.2Eb|-------------------------------------------------|-------------------------------------------------| Hb|-------------------------------------------------|-------------------------------------------------| Gb|-------------------------------------------------|-------------------------------------------------| Db|-4--------------------------4--------4-----------|-3--------------------------3--------3--3--------| Ab|-4--------------------------4--------4-----------|-3--------------------------3--------3--3--------| Eb|-2-----------------------2--2-----2--2-----2--0--|-1-----------------------1--1-----1--1--1-----0--| . . . . . . . Gtr.3Eb|-------------------------------------------------|-------------------------------------------------| Gtr.4Hb|-10----------------13----12-13-10----------------|-13----------------17----15-17-13----------------| Gb|-------------------------------------------------|-14----------------17----16-17-14----------------| Db|-------------------------------------------------|-------------------------------------------------| Ab|-------------------------------------------------|-------------------------------------------------| Eb|-------------------------------------------------|-------------------------------------------------| | | | Gtr.2Eb|-------------------------------------------------|-------------------------------------------------| Hb|-------------------------------------------------|-------------------------------------------------| Gb|-------------------------------------------------|-------------------------------------------------| Db|-7--------------------------7--------7-----------|-5--------------------------5--------5-----------| Ab|-7--------------------------7--------7-----------|-5--------------------------5--------5-----------| Eb|-5-----------------------5--5-----5--5-----5--0--|-3-----------------------3--3-----3--3-----3--0--| . . . . . . . . Gtr.3Eb|-------------------------------17----------------|-17-19-19-19-19-20-20-20-20-22-22-22-22-22-22-22-| Gtr.4Hb|-13----------------17----15-17-17----------------|-17-20-20-20-20-22-22-22-22-24-24-24-24-24-24-24-| Gb|-14----------------17----16-17-------------------|-------------------------------------------------| Db|-------------------------------------------------|-------------------------------------------------| Ab|-------------------------------------------------|-------------------------------------------------| Eb|-------------------------------------------------|-------------------------------------------------| | | | Gtr.2Eb|-------------------------------------------------|-------------------------------------------------| Hb|-------------------------------------------------|-------------------------------------------------| Gb|-------------------------------------------------|-------------------------------------------------| Db|-4--------------------------4--------4-----------|-3--------------------------3--------3--3--------| Ab|-4--------------------------4--------4-----------|-3--------------------------3--------3--3--------| Eb|-2-----------------------2--2-----2--2-----2--0--|-1-----------------------1--1-----1--1--1-----0--| . . . . . . . Gtr.3Eb|-22-20-20-20-20-19-19-19-19-17-17-17----22-22-22-|-22-20-20-20-20-19-19-19-19-17-17-17----22-22-22-| Gtr.4Hb|-24-22-22-22-22-20-20-20-20-17-17-17----24-24-24-|-24-22-22-22-22-20-20-20-20-17-17-17----24-24-24-| Gb|-------------------------------------------------|-------------------------------------------------| Db|-------------------------------------------------|-------------------------------------------------| Ab|-------------------------------------------------|-------------------------------------------------| Eb|-------------------------------------------------|-------------------------------------------------| | | | Gtr.2Eb|-------------------------------------------------|-------------------------------------------------| Hb|-------------------------------------------------|-------------------------------------------------| Gb|-------------------------------------------------|-------------------------------------------------| Db|-7--------------------------7--------7-----------|-5--------------------------5--------5-----------| Ab|-7--------------------------7--------7-----------|-5--------------------------5--------5-----------| Eb|-5-----------------------5--5-----5--5-----5--0--|-3-----------------------3--3-----3--3-----3--0--| . . . . . . . . Gtr.3Eb|-22-20-20-20-20-19-19-19-19-17-17-17-------------|-19--17--19--19--17--19--20~~~~~~~~~----22-22-22-| Gtr.4Hb|-24-22-22-22-22-20-20-20-20-17-17-17-------------|-20--17--20--20--17--20--22~~~~~~~~~----24-24-24-| Gb|-------------------------------------------------|-------------------------------------------------| Db|-------------------------------------------------|-------------------------------------------------| Ab|-------------------------------------------------|-------------------------------------------------| Eb|-------------------------------------------------|-------------------------------------------------| | | | Gtr.2Eb|-------------------------------------------------|-------------------------------------------------| Hb|-------------------------------------------------|-------------------------------------------------| Gb|-------------------------------------------------|-------------------------------------------------| Db|-4--------------------------4--------4-----------|-3--------------------------3--------3--3--------| Ab|-4--------------------------4--------4-----------|-3--------------------------3--------3--3--------| Eb|-2-----------------------2--2-----2--2-----2--0--|-1-----------------------1--1-----1--1--1-----0--| . . . . . . . Gtr.3Eb|-22-20-20-20-20-19-19-19-19-17-17-17----22-22-22-|-22-20-20-20-20-19-19-19-19-17-17-17----22-22-22-| Gtr.4Hb|-24-22-22-22-22-20-20-20-20-17-17-17----24-24-24-|-24-22-22-22-22-20-20-20-20-17-17-17----24-24-24-| Gb|-------------------------------------------------|-------------------------------------------------| Db|-------------------------------------------------|-------------------------------------------------| Ab|-------------------------------------------------|-------------------------------------------------| Eb|-------------------------------------------------|-------------------------------------------------| | | | Gtr.2Eb|-------------------------------------------------|-------------------------------------------------| Hb|-------------------------------------------------|-------------------------------------------------| Gb|-------------------------------------------------|-------------------------------------------------| Db|-7--------------------------7--------7-----------|-5--------------------------5--------5-----------| Ab|-7--------------------------7--------7-----------|-5--------------------------5--------5-----------| Eb|-5-----------------------5--5-----5--5-----5--0--|-3-----------------------3--3-----3--3-----3--0--| . . . . . . . . Gtr.3Eb|-22-20-20-20-20-19-19-19-19-17-17-17-------------|-19--17--19--19--17--19--20--19--20--20--19--20--| Gtr.4Hb|-24-22-22-22-22-20-20-20-20-17-17-17-------------|-20--17--20--20--17--20--22--20--22--22--20--22--| Gb|-------------------------------------------------|-------------------------------------------------| Db|-------------------------------------------------|-------------------------------------------------| Ab|-------------------------------------------------|-------------------------------------------------| Eb|-------------------------------------------------|-------------------------------------------------| | | | Gtr.2Eb|-------------------------------------------------|-------------------------------------------------| Hb|-------------------------------------------------|-------------------------------------------------| Gb|-------------------------------------------------|-------------------------------------------------| Db|-4--------------------------4--------4-----------|-3--------------------------3--------3-----------| Ab|-4--------------------------4--------4-----------|-3--------------------------3--------3-----------| Eb|-2-----------------------2--2-----2--2-----2--0--|-1-----------------------1--1-----1--1-----------| . . . . . . Gtr.3Eb|-20b22--release-20-19----------------------------|-------------------------------------------------| Gtr.4Hb|-22b24--release-22-21-22-22----------21~~~~~~~---|-13bend15.......rel13p12-------------------------| Gb|----------------------22-22----------21~~~~~~~---|-------------------------14p13~~~~~~~~~~~--------| Db|-------------------------------------------------|-------------------------------------------------| Ab|-------------------------------------------------|-------------------------------------------------| Eb|-------------------------------------------------|-------------------------------------------------| | | | Gtr.2Eb|-------------------------------------------------|-------------------------------------------------| Hb|-------------------------------------------------|-------------------------------------------------| Gb|-------------------------------------------------|-R-----------------------------------------------| Db|-2-----------------------------------------------|-E-----------------------------------------------| Ab|-2-----------------------------------------------|-S-----------------------------------------------| Eb|-0-----------------------------------------------|-T-----------------------------------------------| (3:13 - 3:40) VERSE 3: (both gtrs w/distortion) Pod - stavlyu lado - oni ih bolyu svoey napo - olni Gtr.2Eb|-------------------------------------------------|-------------------------------------------------| Gtr.3Hb|-------------------------------------------------|-------------------------------------------------| Gb|-4-----------------------------------------------|-2-----------------------------------------------| Db|-4-----------------------------4-p2--4-p2-p0-----|-2-----------------------------4-p2--4-p2-p0-----| Ab|-2-----------------------------5-p4--5-p4-p2-----|-0-----------------------------5-p4--5-p4-p2-----| Eb|-------------------------------------------------|-------------------------------------------------| na - polni pecha - al\'yu, strahom gul -koy tem - noty. Gtr.2Eb|-------------------------------------------------|-------------------------------------------------| Gtr.3Hb|-------------------------------------------------|-------------------------------------------------| Gb|-0-----------------------------------------------|-------------------2-----------------------------| Db|-0-----------------------------4-p2--4-p2-p0-----|-2--------2--------2-----------------------------| Ab|-x-----------------------------5-p4--5-p4-p2-----|-2--------2--------0-----------------------------| Eb|-3-----------------------------------------------|-0--------0--------------------------------------| (3:40 - 4:02) CHORUS 3 (full-tone higher than the previous choruses, and with distorted sound) pa -ay, na rukah u menya za - sypa - a-a-ay. Zasy- Gtr.2Eb|----------------------------------|---------------------------------| Hb|----------------------------------|---------------------------------| Gb|----------------------------------|-4-------------------------------| Db|--5---------------7---------------|-4-------------------------------| Ab|--5---------------7---------------|-2-------------------------------| Eb|--3---------------5---------------|---------------------------------| | | | Gtr.3Eb|----------------------------------|---------------------------------| Hb|--0-3-2-3-0-3-2-3-0-3-2-3-0-3-2-3-|-0-3-2-3-0-3-2-3-0-3-2-3-5-3-2-3-| Gb|----------------------------------|---------------------------------| Db|----------------------------------|---------------------------------| Ab|----------------------------------|---------------------------------| Eb|----------------------------------|---------------------------------| pa -ay pod pen\'e dozhdya. Dale - Gtr.2Eb|----------------------------------|---------------------------------| Hb|----------------------------------|---------------------------------| Gb|----------------------------------|-4-------------------------------| Db|--5---------------7---------------|-4-------------------------------| Ab|--5---------------7---------------|-2-------------------------------| Eb|--3---------------5---------------|---------------------------------| | | | Gtr.3Eb|----------------------------------|---------------------------------| Hb|--0-3-2-3-0-3-2-3-0-3-2-3-0-3-2-3-|-0-3-2-3-0-3-2-3-0-3-2-3-5-3-2-3-| Gb|----------------------------------|---------------------------------| Db|----------------------------------|---------------------------------| Ab|----------------------------------|---------------------------------| Eb|----------------------------------|---------------------------------| ko -o, tam gde neba konchaetsya kra - ay, ty nay- Gtr.2Eb|----------------------------------|---------------------------------| Hb|----------------------------------|---------------------------------| Gb|----------------------------------|-4-------6-------7-------9-------| Db|--5---------------7---------------|-4-------6-------7-------9-------| Ab|--5---------------7---------------|-2-------4-------5-------7-------| Eb|--3---------------5---------------|---------------------------------| | | | Gtr.3Eb|----------------------------------|---------------------------------| Hb|--0-3-2-3-0-3-2-3-0-3-2-3-0-3-2-3-|-0-3-2-3-0-3-2-3-0-3-2-3-5-3-2-3-| Gb|----------------------------------|---------------------------------| Db|----------------------------------|---------------------------------| Ab|----------------------------------|---------------------------------| Eb|----------------------------------|---------------------------------| de -esh\' poteryannyy ray... Gtr.2Eb|----------------------------------|----------------------------------| Hb|----------------------R-----------|----------------------------------| Gb|----------------------E-----------|----------------------------------| Db|--5---------------7---S-----------|----------------------------------| Ab|--5---------------7---T-----------|----------------------------------| Eb|--3---------------5---------------|----------------------------------| (4:02 - 4:27) Vocal interlude (\"v mire snov\") with Riff 3 fading in. (4:27 - 5:18) RIFF 3: (*4 times) Gtr.3Eb||-2-------2-----------------------|-2-------2-----------------------| Hb||-----------------5p3-------------|-----------------5p3-------------| Gb||---------------------4-----------|---------------------4-----------| Db||---------------------------------|---------------------------------| Ab||---------------------------------|---------------------------------| Eb||---------------------------------|---------------------------------| || | | Gtr.2Eb||---------------------------------|---------------------------------| Hb||---------------------------------|---------------------------------| Gb||-4-------4---------4-----4-------|-2-------2---------2-----2-------| Db||-4-------4---------4-----4-------|-2-------2---------2-----2-------| Ab||-2-------2-------2-2---2-2-------|-0-------0-------0-0---0-0-------| Eb||---------------------------------|---------------------------------| Gtr.3Eb|--2-------2-----------------------|---------------------------------|| Hb|------------------5p3-----------2-|-3---3-3---5-2-----------3p2-----|| Gb|----------------------4-------4---|-----------------------------4p2-|| Db|----------------------------------|---------------------------------|| Ab|----------------------------------|---------------------------------|| Eb|----------------------------------|---------------------------------|| | | || Gtr.2Eb|----------------------------------|---------------------------------|| Hb|----------------------------------|-------------2-------------------|| Gb|----------------------------------|-------------2-------------------|| Db|--5-------5---------5-----5-------|-2-----2-----2-------------------|| Ab|--5-------5---------5-----5-------|-2-----2-----0-----------5p4p2p0-|| Eb|--3-------3-------3-3---3-3-------|-0-----0-------------------------|| (5:18 -> ...) OUTRO SOLO: (gradually fades away) Lead Eb|-------------------------------------------------|-------------------------------------------------| Hb|-17b19~~~~~~~---15-14-15-14-------------15-14-15-|-14-------------15-14-15-14-------------15-14-15-| Gb|----------------------------16-14-16-------------|----16-14-16~~~-------------16-14-16-------------| Db|-------------------------------------------------|-------------------------------------------------| Ab|-------------------------------------------------|-------------------------------------------------| Eb|-------------------------------------------------|-------------------------------------------------| | | | Gtr.2Eb|-------------------------------------------------|-------------------------------------------------| Hb|-------------------------------------------------|-------------------------------------------------| Gb|-4-----------4--------------4--------4-----------|-2-----------2--------------2--------2-----------| Db|-4-----------4--------------4--------4-----------|-2-----------2--------------2--------2-----------| Ab|-2-----------2-----------2--2-----2--2-----------|-0-----------0-----------0--0-----0--0-----------| Eb|-------------------------------------------------|-------------------------------------------------| Lead Eb|-------------------------------------------------|-------------------------------------------------| Hb|-14-------------15-14-15-14-------------15-14-15-|-14----------------------------------------------| Gb|----16-14-16----------------16-14-16-------------|----16-14-16bend to19----------------------------| Db|-------------------------------------------------|-------------slow--------------------------------| Ab|-------------------------------------------------|-------------bend--------------------------------| Eb|-------------------------------------------------|-------------------------------------------------| | | | Gtr.2Eb|-------------------------------------------------|-------------------------------------------------| Hb|-------------------------------------------------|-------------------2-----------------------------| Gb|-------------------------------------------------|-------------------2-----------------------------| Db|-5-----------5--------------5--------5-----------|-2--------2--------2-----------------4--2--------| Ab|-5-----------5--------------5--------5-----------|-2--------2--------0-----------------------5--4--| Eb|-3-----------3-----------3--3-----3--3-----------|-0--------0--------------------------------------| Lead Eb|-7p5---7p5---7p5---7p5---7p5---7p5---7p5---7p5---|-7p5---7p5---7p5---7p5---7p5---7p5---7bend10-r7p5| Hb|----7p5---7p5---7p5---7p5---7p5---7p5---7p5---7p5|----7p5---7p5---7p5---7p5---7p5---7p5------------| Gb|-------------------------------------------------|-------------------------------------------------| Db|-------------------------------------------------|-------------------------------------------------| Ab|-------------------------------------------------|-------------------------------------------------| Eb|-------------------------------------------------|-------------------------------------------------| | | | Gtr.2Eb|-------------------------------------------------|-------------------------------------------------| Hb|-------------------------------------------------|-------------------------------------------------| Gb|-4-----------4--------------4--------4-----------|-2-----------2--------------2--------2-----------| Db|-4-----------4--------------4--------4-----------|-2-----------2--------------2--------2-----------| Ab|-2-----------2-----------2--2-----2--2-----------|-0-----------0-----------0--0-----0--0-----------| Eb|-------------------------------------------------|-------------------------------------------------| Lead Eb|-7~~~~~~~~~~~------------------------------------|-------------------------------------------------| Hb|----------------5--------5--7--5-----------------|-------------------------------------------------| Gb|----------------------------------7--4-----------|-9p7---9p7----9----6--------------------6--7--9--| Db|-------------------------------------------------|----9p7---9p7------------------------9-----------| Ab|-------------------------------------------------|-------------------------------------------------| Eb|-------------------------------------------------|-------------------------------------------------| | | | Gtr.2Eb|-------------------------------------------------|-------------------------------------------------| Hb|-------------------------------------------------|-------------------2-----------------------------| Gb|-------------------------------------------------|-------------------2-----------------------------| Db|-5-----------5--------------5--------5-----------|-2--------2--------2-----------------4--2--------| Ab|-5-----------5--------------5--------5-----------|-2--------2--------0-----------------------5--4--| Eb|-3-----------3-----------3--3-----3--3-----------|-0--------0--------------------------------------|

    лекарство в аптеке
    список лекарств






    О сайтеАккордыХит-парадПоискУроки ФорумыИщу песню
    ПрограммыСвежачок-сПодпискаСтатьи
    Яндекс.Метрика