Табулатура Ария | Потерянный Рай гитара табулатуры уроки тексты песен Ария текст lyrics песня аккорды песни ноты нота электрогитара струна  
   А Б В Г Д Е Ж З И К Л М Н О П Р С Т У Ф Х Ч Ш Ы Э Ю Я       Разные песни
1-9 A B C D E F G H I J K L M N O P Q R S T U V W Y Z      Все исполнители in english

    



группа Ария, Табулатура песни Потерянный Рай

Продолжаем грести бабос на ботах в Telegram.
Только в этот раз есть вариант автоматизировать это дело, привлекая рефералов. Вы можете заработать если »

Группа: Ария - другие аккорды (629),   о группе (7 статей),   диски (18),   фотографии (92)
Табулатура песни: Потерянный Рай
Просмотров: 1562
Прислал: Max (max_ney@mtv.ru)




    
    АРИЯ . Потерянный рай.
Вступление:
      Am7                 Am6
1|---3----3----3-----3----|-----2------2--------2------2------|
2|---1----1----1-----1----|-----1------1--------1------1------|
3|------2----2----2----2--|--------2--------2-------2-----2---|
4|------------------------|-----------------------------------|
5|---0--------------------|-----0-----------------------------|
6-------------------------|-----------------------------------|
   Am+5                 G                    Am         
1|---1----1----1----1----|-------0---------------------------|
2|---1----1----1----1----|----3---3------------1-------------|
3|-----2-----2----2----2-|---------0-----------2-------------|
4|-----------------------|-----------------------------------|
5|---0-------------------|---------------------0-------------| 
6|-----------------------|----3------------------------------|
(Вступление можно играть предложенным перебором, а можно играть боем; 
вступление играется 2 раза)
КУПЛЕТ: (Играется боем, но можно играть перебором вступления)
Am7
  От края до края
  Am6
  Небо в огне сгорает,
Am+5
   И в нем исчезают
         C        G
   Все надежды и мечты.
Но ты засыпаешь,
И ангел к тебе слетает,
Смахнет твои слезы,
Чтоб во сне смеялась ты!
Припев:
    F
3асыпай,
        G         Am  
У меня на руках засыпай,
   F
Засыпай
G      Am   

Продолжаем грести бабос на ботах в Telegram.
Только в этот раз есть вариант автоматизировать это дело, привлекая рефералов. Вы можете заработать если »

Под пенье дождя... F Далеко, G (***) Там, где неба кончается край, F Ты найдеш G Am7 Am6 Am+5 G Am (т.е. вступление) Потерянный рай. (***) 1|---5----7----8-------12---| 2|---5----5----10------13---| 3|---5----5----9-------14---| 4|--------------------------| 5|---0----------0-----------| 6|--------------------------| КУПЛЕТ: Во сне хитрый демон Может пройти сквозь стены, Дыханье у спящих Он умеет похищать. Бояться не надо, Душа моя будет рядом. Твои сновиденья До рассвета охранять. Подставлю ладони - Их болью своей наполни, Наполни печалью, Страхом гулкой пустоты, И ты не узнаешь, Как небо в огне сгорает, Как жизнь разбивает И надежды и мечты. В припеве аккорд Am Am (C прижиманием и отпусканием ук. пальца на 1ладу, 2 струне.)

поиск лекарств
список лекарств






О сайтеАккордыХит-парадПоискУроки ФорумыИщу песню
ПрограммыСвежачок-сПодпискаСтатьи
Яндекс.Метрика