Табулатура Immortal | Mortal Combat гитара табулатуры уроки тексты песен Immortal текст lyrics песня аккорды песни ноты нота электрогитара струна  
   А Б В Г Д Е Ж З И К Л М Н О П Р С Т У Ф Х Ч Ш Ы Э Ю Я       Разные песни
1-9 A B C D E F G H I J K L M N O P Q R S T U V W Y Z      Все исполнители

    



группа Immortal, Табулатура песни Mortal Combat

Группа: Immortal - другие аккорды (2)
Табулатура песни: Mortal Combat
Просмотров: 5969
Прислал: Arran (arkuen@mail.ru)




    
Riff 1 2X:
e|-------------------------|-------------------------|
B|-------------------------|-------------------------|
G|-------------------------|-------------0-----------|
D|--------------0-----2--0-|-------2-----------2-----|
A|--0--0--3--0-----0-------|-3--3-----3-----3-----3--|
E|-------------------------|-------------------------|
e|------------------------|------------------------|
B|------------------------|------------------------|
G|------------------------|------------------------|
D|-------------------0----|------------------------|
A|-------2-----3--------3-|-------0-----3-----3--2-|
E|-3--3-----3-----3-------|-1--1-----1-----1-------|
Riff 2:
e|---------------------|-------------------|------------------|
B|-----------------1---|-------------------|----------------1-|
G|--2--2--2--2--0------|-2--2--2--2--0-----|-2--2--2--2--0----|
D|---------------------|----------------2--|------------------|
A|---------------------|-------------------|------------------|
E|---------------------|-------------------|------------------|
e|---------------------|-------------------|------------------|  
B|---------------------|-----------------1-|------------------|  
G|-2--2--2--2--2--2--2-|--2--2--2--2--0----|-2--2--2--2--0----|  
D|---------------------|-------------------|----------------2-|  
A|---------------------|-------------------|------------------|  
E|---------------------|-------------------|------------------|  
e|---------------------|-------------------------0----------------------|
B|-------------------1-|-------------------------------1-----------1----|
G|----2--2--2--2--0----|-2--2--2--2--2--2--2--2-----2-----2--3--2-----2-|
D|-2-------------------|------------------------------------------------|

Продолжаем грести бабос на ботах в Telegram.
Только в этот раз есть вариант автоматизировать это дело, привлекая рефералов. Вы можете заработать если »

A|---------------------|------------------------------------------------| E|---------------------|------------------------------------------------| e|----------0--------------------------------0-------------------------| B|----------------1-----------1--------------------1-----------1-------| G|-3--0--2-----2-----2--3--2-----2--3--0--2-----2-----2--3--2-----2--3-| D|---------------------------------------------------------------------| A|---------------------------------------------------------------------| E|---------------------------------------------------------------------| e|-------0--------------------------0--------------------------------0-| B|-------------1--------------------------1-----------1----------------| G|-0--2-----2-----0--0--0--2--2--2-----2-----2--3--2-----2--3--0--2----| D|---------------------------------------------------------------------| A|---------------------------------------------------------------------| E|---------------------------------------------------------------------| e|-------------------------------0----------------------------| B|----1-----------1--------------------1-----------1----------| G|-2-----2--3--2-----2--3--0--2-----2-----2--3--2-----2--3--0-| D|------------------------------------------------------------| A|------------------------------------------------------------| E|------------------------------------------------------------| e|---------------------------------------------------| D|----------------1----------------------------------| G|-2--2--2--2--0-----2--2--2--2--0-----2--2--2--2--0-| D|----------------------------------2----------------| A|---------------------------------------------------| E|---------------------------------------------------|








О сайтеАккордыХит-парадПоискУроки ФорумыИщу песню
ПрограммыСвежачок-сПодпискаСтатьи
Яндекс.Метрика