Табулатура Эпидемия | Кровь Эльфов гитара табулатуры уроки тексты песен Эпидемия текст lyrics песня аккорды песни ноты нота электрогитара струна  
   А Б В Г Д Е Ж З И К Л М Н О П Р С Т У Ф Х Ч Ш Ы Э Ю Я       Разные песни
1-9 A B C D E F G H I J K L M N O P Q R S T U V W Y Z      Все исполнители

    



группа Эпидемия, Табулатура песни Кровь Эльфов

Группа: Эпидемия - другие аккорды (138),   о группе (9 статей),   диски (6),   фотографии (18)
Табулатура песни: Кровь Эльфов
Просмотров: 1256
Подобрал: warrior (alf-2002@mail.ru)




    
Подобрал warrior:
Кровь Эльфов
Настраиваем гитару на полтона ниже(ЕЬ, как уже говорилось) и погнали(кстати, советую всем настраивать гитары в этой тональности, потому что сейчас многие группы играют именно так)
Вступление.
Гтр.1
pm... .....
1|----------------------|----------------------|
2|------3--2h3p2p0-|------3-3-3-2-0-2--|
3|----------------------|----------------------| 2 раза
4|-0-0-----------------|----------------------|
5|----------------------|-1-1-----------------|
6|----------------------|----------------------|
затем вступает 2-ая гитара,1-ая продолжает играть то же самое
гтр.2
1|----------------------|----------------------|
2|----------------------|----------------------|
3|--5-------------------|---------------------|
4|--5-------------------|-8-------7----------| 4 раза
5|--3-------------------|-8-------7----------|
6|----------------------|-6-------5-----------|
затем гтр1 продолжает играть ,а 2-ая играет
pm.................. ......... .........
1|----------------------|-----------------------|
2|----------------------|-----------------------|
3|----------------------|-----------------------| 4 раза
4|-5-------------------|-----------------------|
5|-3-3-3-3-3-3-3-3-|-8---------7----------|
6|----------------------|-6-6-6-6-5-5-5-5--|
дальше пишу 2 гитары вместе
гтр1
4|-7-------------------|-9---------------------|
5|-5-------------------|-7---------------------| 
гтр2 
4|-4~~---------------|-5~~~---------------| 

гтр1
pm.................. ..................
1|----------------3-2-|----------------------|
2|---------------------|----------------------|
3|---------------------|----------------------|
4|---------------------|----------------0-2--|
5|---------------------|----------------------|
6|-0-0--0-0--0------|-0-0--0-0--0-------| 2 раза

Продолжаем грести бабос на ботах в Telegram.
Только в этот раз есть вариант автоматизировать это дело, привлекая рефералов. Вы можете заработать если »

гтр2 1|---------------------|----------------------| 2|---------------------|----------------------| 3|---------------------|----------------------| 4|----------------2-2-|----------------------| 5|---------------------|-----------------2-3-| 6|-0-0--0-0--0------|-0-0--0-0--0-------| гтр1 pm................. ................... 1|-------------------------3-2-|------------------------------| 2|------------------------------|------------------------------| 3|------------------------------|----------------0h2p0------| 4|----------------0h2p0------|-------------------------0-2-| 5|------------------------------|------------------------------| 6|-0-0--0-0--0---------------|-0-0--0-0--0---------------| 4 раза гтр2 pm................. ................... 1|------------------------------|------------------------------| 2|------------------------------|------------------------------| 3|------------------------------|----------------0h2p0------| 4|----------------0h2p0-2-2-|------------------------------| 5|------------------------------|-------------------------2-3-| 6|-0-0--0-0--0---------------|-0-0--0-0--0---------------| куплет: 3|-----------------------5----------------------------------| 4|-2--------------------5-------2------7-----2----5---4-| 5|-2--------------------3-------2------7-----2----5---4-| 2 раза 6|-0-----------------------------0------5-----0----3---2-| мой мир погрузился...... pm..... ......... .......... ........... ......... .......... .......... .......... 3|---------------------5-------------------------------------------------------------| 4|-2---------2--------5---------2---------7---------2---------5--------4---------| 5|-2---------2--------3-3-3-3-2---------7---------2---------5--------4---------| 6|-0-0-0-0-0-0-0-0-----------0-0-0-0-5-5-5-5-0-0-0-0-3-3-3-3-2-2-2-2-| 4|------------------------------------0--------------2--| 5|---2---------------3----------------------------------| 7 раз(наверно) 6|-0----0-0-0-0-0-----0-0-0-0-0---0-0-0-0-0-----| мир меняется........ 5|-2222222222222222----->дальше идет припев, который я еще не подобрал. Сомнений тут у меня дофига, если кто что увидет корректируйте.Тут правда pm... съезжает влево,но я думаю вы поймете когда струны приглушать надо.








О сайтеАккордыХит-парадПоискУроки ФорумыИщу песню
ПрограммыСвежачок-сПодпискаСтатьи
Яндекс.Метрика