Табулатура Эпидемия | Всадник Из Льда гитара табулатуры уроки тексты песен Эпидемия текст lyrics песня аккорды песни ноты нота электрогитара струна  
   А Б В Г Д Е Ж З И К Л М Н О П Р С Т У Ф Х Ч Ш Ы Э Ю Я       Разные песни
1-9 A B C D E F G H I J K L M N O P Q R S T U V W Y Z      Все исполнители

    



группа Эпидемия, Табулатура песни Всадник Из Льда

Группа: Эпидемия - другие аккорды (138),   о группе (9 статей),   диски (6),   фотографии (18)
Табулатура песни: Всадник Из Льда
Просмотров: 2900
Подобрал: Джавакка (jawaka@nexcom.ru)




    
подбор аккордов - Джавакка                   |
|                        jawaka@nexcom.ru                        |
|                        javakka.narod.ru                        |
 ----------------------------------------------------------------
	Эпидемия - Всадник Из Льда
(музыка и слова Юрий Мелисов)

Играется с зажимом на 2-м ладу.
 
Вступление:
Первая гитара
F#m      E       C#m       D
|--------------------------------|
|--------------------------------|
|----2---------------------------|
|--4---4-----6---2---2-4-----4---|
|4---------7---7-4-4---5---5---5-|
|--------7-------4-----5---------|
Вторая гитара
F#m      E       C#m       D
|----2---------------------------|
|--2---2-----5-------------------|
|----------4---4-6---6-7-----7---|
|4-------2-------6-6---7---7---7-|
|----------------4-----5---------|
|--------------------------------|

КУплет:
F#m              D
|--------2---------------2-------|
|----2-----2---2-----3-----3-----|
|--2---2-----2-----2---2---------|
|--------------------------------|
|----------------5-----------5-4-|
|2-------------------------------|
Hm               A
|--------2---------------5-------|
|2h3-------3---3-----5-----5-----|
|4---4-------4-----2---2---------|
|------4-------------------------|
|2-------------------------------|
|----------------5-----------5-4-|
Примечание: h = hammer

F#m            D
Застыв на ветру
Hm          A
У синего льда,
F#m         D
Я скоро умру – 
Hm          A
Уйду навсегда.
	E          D
	Я верил тебе,
	      E              F#m
	А сейчас я верю судьбе.

Продолжаем грести бабос на ботах в Telegram.
Только в этот раз есть вариант автоматизировать это дело, привлекая рефералов. Вы можете заработать если »

D Hm Свет погас, ведь солнце зашло E F#m D Hm A Для меня навсегда. E F#m D Hm A E Навсегда... Я сам погубил – Уже не вернуть. Тебя не хранил, И проклят мой путь. А сердце, как лёд – Холодит, мой прерван полёт, Позади всё то, чем я жил И кого я любил. Я любил... F#m D Кто любовь потерял - Hm D E Превращается в лёд. F#m D Кто её отыскал – Hm A E Никогда не умрёт. F#m E Всё, что любил, но не ценил, C#m D Потерял я вмиг, Hm F#m D И навсегда Всадник Из Льда E F#m Позабыл твой лик. (cоло Juron) Чтоб горе забыть И сгладить вину, Скачу от судьбы В забвения страну. Окончен мой путь – Я устал, пора отдохнуть Среди скал, покрытые льдом, Словно сердце моё. Как сердце моё... Мне край этот мил - Нет боли и слёз. Все чувства убил Волшебный мороз. Я Всадник Из Льда, Надо мной мерцает звезда, Но весной лёд тает всегда, Только я - никогда. Только я - никогда...








О сайтеАккордыХит-парадПоискУроки ФорумыИщу песню
ПрограммыСвежачок-сПодпискаСтатьи
Яндекс.Метрика