Табулатура Mike Oldfield | Flying Start гитара табулатуры уроки тексты песен Mike Oldfield текст lyrics песня аккорды песни ноты нота электрогитара струна  
   А Б В Г Д Е Ж З И К Л М Н О П Р С Т У Ф Х Ч Ш Ы Э Ю Я       Разные песни
1-9 A B C D E F G H I J K L M N O P Q R S T U V W Y Z      Все исполнители

    



группа Mike Oldfield, Табулатура песни Flying Start

Группа: Mike Oldfield - другие аккорды (207),   об исполнителе (3 статей),   диски (26),   фотографии (18)
Табулатура песни: Flying Start
Просмотров: 771
Прислал: squire (cailinsquires@yahoo.ie)




    
  Flying Start                                   

Clean guitar
                                                                      
E||------------------|------------------------|----------------------|
B||------------------|------------------------|----------------------|
G||------------------|---------------6--5--3--|---------3--1---------|
D||------------------|--4----6----6-----------|----4-----------------|
A||------------------|------------------------|-----------------4----|
E||------------------|------------------------|----------------------|

                                                                         
------------------------|----------------------|------------------------|
---------------2--1-----|----------------------|---------------2--1-----|
-------1----1--------3--|---------3--1---------|-------1----1--------3--|
--4---------------------|----4-----------------|--4---------------------|
------------------------|-----------------4----|------------------------|
------------------------|----------------------|------------------------|

                                                                      
----------------------|------------------------|---------------------|
----------------------|---------------2--1-----|----2--1----2--------|
---------3--1---------|-------1----1--------3--|---------------------|
----4-----------------|--4---------------------|---------------------|
-----------------4----|------------------------|---------------------|
----------------------|------------------------|---------------------|

                                                                            
------------------|------------------|------------------|------------------|
------------------|------------------|------------------|------------------|
------------------|------------------|------------------|------------------|
------------------|------------------|------------------|------------------|
------------------|------------------|------------------|------------------|
------------------|------------------|------------------|------------------|

                                                                            
------------------|------------------|------------------|------------------|
------------------|------------------|------------------|------------------|
------------------|------------------|------------------|------------------|
------------------|------------------|------------------|------------------|
------------------|------------------|------------------|------------------|
------------------|------------------|------------------|------------------|

                                                                        
------------------------|---------------------|------------------------|
------------------------|---------------------|---------------2--1-----|
---------------6--5--3--|---------3--1--------|-------1----1--------3--|
--4----6----6-----------|----4----------------|--4---------------------|
------------------------|---------------------|------------------------|
------------------------|---------------------|------------------------|

                                                                     
---------------------|------------------------|---------------------|
---------------------|---------------2--1-----|---------------------|
---------3--1--------|-------1----1--------3--|---------3--1--------|
----4----------------|--4---------------------|----4----------------|
---------------------|------------------------|---------------------|
---------------------|------------------------|---------------------|

                                                                  
------------------------|---------------------|------------------|
---------------2--1-----|----2--1----2--------|------------------|
-------1----1--------3--|---------------------|------------------|
--4---------------------|---------------------|------------------|
------------------------|---------------------|------------------|
------------------------|---------------------|------------------|

                                                                            
------------------|------------------|------------------|------------------|
------------------|------------------|------------------|------------------|
------------------|------------------|------------------|------------------|
------------------|------------------|------------------|------------------|
------------------|------------------|------------------|------------------|
------------------|------------------|------------------|------------------|

                                                                            
------------------|------------------|------------------|------------------|
------------------|------------------|------------------|------------------|
------------------|------------------|------------------|------------------|
------------------|------------------|------------------|------------------|
------------------|------------------|------------------|------------------|
------------------|------------------|------------------|------------------|

                                                              
------------------|--------------------|---------------------|
------------------|--------------------|---------------------|
------------------|--------------------|---------------------|
------------------|--------------------|---------------------|
------------------|--------------------|---------------------|
------------------|--------------2--4--|--4--4--1------------|

                                                                            
------------------|------------------|------------------|------------------|
------------------|------------------|------------------|------------------|
------------------|------------------|------------------|------------------|
------------------|------------------|------------------|------------------|
------------------|------------------|------------------|------------------|
------------------|------------------|------------------|------------------|

                                                                        
------------------------|---------------------|------------------------|
------------------------|---------------------|---------------2--1-----|
---------------6--5--3--|---------3--1--------|-------1----1--------3--|
--4----6----6-----------|----4----------------|--4---------------------|
------------------------|---------------------|------------------------|
------------------------|---------------------|------------------------|

                                                                     
---------------------|------------------------|---------------------|
---------------------|---------------2--1-----|---------------------|
---------3--1--------|-------1----1--------3--|---------3--1--------|
----4----------------|--4---------------------|----4----------------|
---------------------|------------------------|---------------------|
---------------------|------------------------|---------------------|

                                                                  
------------------------|---------------------|------------------|
---------------2--1-----|----2--1----2--------|------------------|
-------1----1--------3--|---------------------|------------------|
--4---------------------|---------------------|------------------|
------------------------|---------------------|------------------|
------------------------|---------------------|------------------|

                                                                            
------------------|------------------|------------------|------------------|
------------------|------------------|------------------|------------------|
------------------|------------------|------------------|------------------|

Продолжаем грести бабос на ботах в Telegram.
Только в этот раз есть вариант автоматизировать это дело, привлекая рефералов. Вы можете заработать если »

------------------|------------------|------------------|------------------| ------------------|------------------|------------------|------------------| ------------------|------------------|------------------|------------------| ------------------|------------------|------------------|------------------| ------------------|------------------|------------------|------------------| ------------------|------------------|------------------|------------------| ------------------|------------------|------------------|------------------| ------------------|------------------|------------------|------------------| ------------------|------------------|------------------|------------------| ------------------|--------------------|---------------------| ------------------|--------------------|---------------------| ------------------|--------------------|---------------------| ------------------|--------------------|---------------------| ------------------|--------------------|---------------------| ------------------|--------------2--4--|--4--4--1------------| ------------------|------------------|------------------|------------------| ------------------|------------------|------------------|------------------| ------------------|------------------|------------------|------------------| ------------------|------------------|------------------|------------------| ------------------|------------------|------------------|------------------| ------------------|------------------|------------------|------------------| ------------------------|---------------------|------------------------| ------------------------|---------------------|---------------2--1-----| ---------------6--5--3--|---------3--1--------|-------1----1--------3--| --4----6----6-----------|----4----------------|--4---------------------| ------------------------|---------------------|------------------------| ------------------------|---------------------|------------------------| ---------------------|------------------------|---------------------| ---------------------|---------------2--1-----|---------------------| ---------3--1--------|-------1----1--------3--|---------3--1--------| ----4----------------|--4---------------------|----4----------------| ---------------------|------------------------|---------------------| ---------------------|------------------------|---------------------| ------------------------|---------------------|------------------------| ---------------2--1-----|----2--1----2--------|---------------2--1-----| -------1----1--------3--|---------------------|-------1----1--------3--| --4---------------------|---------------------|--4---------------------| ------------------------|---------------------|------------------------| ------------------------|---------------------|------------------------| ---------------------|------------------------|---------------------| ---------------------|---------------2--1-----|---------------------| ---------3--1--------|-------1----1--------3--|---------3--1--------| ----4----------------|--4---------------------|----4----------------| ---------------------|------------------------|---------------------| ---------------------|------------------------|---------------------| ------------------------|---------------------|------------------------| ---------------2--1-----|---------------------|---------------2--1-----| -------1----1--------3--|---------3--1--------|-------1----1--------3--| --4---------------------|----4----------------|--4---------------------| ------------------------|---------------------|------------------------| ------------------------|---------------------|------------------------| ---------------------|------------------------|---------------------| ----2--1----2--------|---------------2--1-----|---------------------| ---------------------|-------1----1--------3--|---------3--1--------| ---------------------|--4---------------------|----4----------------| ---------------------|------------------------|---------------------| ---------------------|------------------------|---------------------| ------------------------|---------------------|------------------------| ---------------2--1-----|---------------------|---------------2--1-----| -------1----1--------3--|---------3--1--------|-------1----1--------3--| --4---------------------|----4----------------|--4---------------------| ------------------------|---------------------|------------------------| ------------------------|---------------------|------------------------| ---------------------|------------------------|---------------------| ---------------------|---------------2--1-----|----2--1----2--------| ---------3--1--------|-------1----1--------3--|---------------------| ----4----------------|--4---------------------|---------------------| ---------------------|------------------------|---------------------| ---------------------|------------------------|---------------------| ------------------------|---------------------|------------------------| ---------------2--1-----|---------------------|---------------2--1-----| -------1----1--------3--|---------3--1--------|-------1----1--------3--| --4---------------------|----4----------------|--4---------------------| ------------------------|---------------------|------------------------| ------------------------|---------------------|------------------------| ---------------------|------------------------|---------------------| ---------------------|---------------2--1-----|---------------------| ---------3--1--------|-------1----1--------3--|---------3--1--------| ----4----------------|--4---------------------|----4----------------| ---------------------|------------------------|---------------------| ---------------------|------------------------|---------------------| -------------------|------------------|------------------|------------------| -------------------|------------------|------------------|------------------| -------------------|------------------|------------------|------------------| --4----------------|------------------|------------------|------------------| -------------------|------------------|------------------|------------------| -------------------|------------------|------------------|------------------| ------------------|| ------------------|| ------------------|| ------------------|| ------------------|| ------------------||








О сайтеАккордыХит-парадПоискУроки ФорумыИщу песню
ПрограммыСвежачок-сПодпискаСтатьи
Яндекс.Метрика