Табулатура Mike Oldfield | B. Blues гитара табулатуры уроки тексты песен Mike Oldfield текст lyrics песня аккорды песни ноты нота электрогитара струна  
   А Б В Г Д Е Ж З И К Л М Н О П Р С Т У Ф Х Ч Ш Ы Э Ю Я       Разные песни
1-9 A B C D E F G H I J K L M N O P Q R S T U V W Y Z      Все исполнители

    



группа Mike Oldfield, Табулатура песни B. Blues

Группа: Mike Oldfield - другие аккорды (207),   об исполнителе (3 статей),   диски (26),   фотографии (18)
Табулатура песни: B. Blues
Просмотров: 865
Прислал: squire (cailinsquires@yahoo.ie)




    
   B.Blues                                     

                                                                   Mike Oldfield
Jazz Elec Guitar

                                                                         
E||------------------------|------------------|-----------------------0-|
B||----------1-------------|------------------|----1-3-1-3----------3---|
G||------0------2----------|------------------|--2----------------------|
D||--0-2---2---------------|------------------|-------------------------|
A||------------------------|------------------|-------------------------|
E||------------------------|------------------|-------------------------|

                                                                    
-----------------------|-----------------------|-------------------|
--1--0--0----------0-1-|--------1--------------|-------------------|
-----------------------|--2--0-----0--2--------|-------------------|
-----------------------|-----------------------|-----------------2-|
-----------------------|-----------------------|-------------------|
-----------------------|-----------------------|-------------------|

                                                                      
-----------------------|--------------------|------------------------|
------0----------------|--------------------|----------1-------------|
--0-2---2-0------------|--------------------|------0------2----------|
-----------------------|----2--0------------|--0-2---2---------------|
-----------------------|--------------------|------------------------|
-----------------------|--------------------|------------------------|

                                                                     
------------------|-----------------------0-|-----------------------|
------------------|----1-3-1-3----------3---|--1--0--0----------0-1-|
------------------|--2----------------------|-----------------------|
------------------|-------------------------|-----------------------|
------------------|-------------------------|-----------------------|
------------------|-------------------------|-----------------------|

                                                                    
-----------------------|-------------------|-----------------------|
--------1--------------|-------------------|------0----------------|
--2--0-----0--2--------|-------------------|--0-2---2-0------------|
-----------------------|-----------------2-|-----------------------|
-----------------------|-------------------|-----------------------|
-----------------------|-------------------|-----------------------|

                                                              
--------------------|------------------|----------0----------|
--------------------|------------------|----1-1-3------------|
--------------------|------------------|--2------------------|
----2--0------------|------------------|---------------------|
--------------------|------------------|---------------------|
--------------------|------------------|---------------------|

                                                                
------------------|-----------------0-|------------------------|
------------------|-------------------|--3-1-----1-------------|
------------------|-------------------|------2-0----2----------|
------------------|-------------------|------------------------|
------------------|-------------------|------------------------|
------------------|-------------------|------------------------|

                                                                  
------------------|--------0----------------|-------0------------|
------------------|----1-3-----3---1--0---1-|----3---------------|
------------------|-------------------------|--------------------|
------------------|-------------------------|--------------------|
------------------|-------------------------|--------------------|
------------------|-------------------------|--------------------|

                                                                                
------------------|----------0----------|------------------|-----------------0-|
------------------|----1-1-3------------|------------------|-------------------|
------------------|--2------------------|------------------|-------------------|
------------------|---------------------|------------------|-------------------|
------------------|---------------------|------------------|-------------------|
------------------|---------------------|------------------|-------------------|

                                                                      
------------------------|------------------|--------0----------------|
--3-1-----1-------------|------------------|----1-3-----3---1--0---1-|
------2-0----2----------|------------------|-------------------------|
------------------------|------------------|-------------------------|
------------------------|------------------|-------------------------|
------------------------|------------------|-------------------------|

                                                                              
-------0------------|------------------|------------------|------------------|
----3---------------|------------------|------------------|------------------|
--------------------|------------------|------------------|------------------|
--------------------|------------------|------------------|------------------|
--------------------|------------------|------------------|------------------|
--------------------|------------------|------------------|------------------|

                                                                            
------------------|------------------|------------------|------------------|
------------------|------------------|------------------|------------------|
------------------|------------------|------------------|------------------|
------------------|------------------|------------------|------------------|
------------------|------------------|------------------|------------------|
------------------|------------------|------------------|------------------|

                                                                            
------------------|------------------|------------------|------------------|
------------------|------------------|------------------|------------------|
------------------|------------------|------------------|------------------|
------------------|------------------|------------------|------------------|
------------------|------------------|------------------|------------------|
------------------|------------------|------------------|------------------|

                                                                            
------------------|------------------|------------------|------------------|
------------------|------------------|------------------|------------------|
------------------|------------------|------------------|------------------|
------------------|------------------|------------------|------------------|
------------------|------------------|------------------|------------------|
------------------|------------------|------------------|------------------|

                                                                               
------------------|------------------|------------------|----------0----------|
------------------|------------------|------------------|----1-1-3------------|
------------------|------------------|------------------|--2------------------|
------------------|------------------|------------------|---------------------|
------------------|------------------|------------------|---------------------|
------------------|------------------|------------------|---------------------|

                                                                
------------------|-----------------0-|------------------------|
------------------|-------------------|--3-1-----1-------------|
------------------|-------------------|------2-0----2----------|
------------------|-------------------|------------------------|
------------------|-------------------|------------------------|
------------------|-------------------|------------------------|

                                                                  
------------------|--------0----------------|-------0------------|
------------------|----1-3-----3---1--0---1-|----3---------------|
------------------|-------------------------|--------------------|
------------------|-------------------------|--------------------|
------------------|-------------------------|--------------------|
------------------|-------------------------|--------------------|

                                                                                
------------------|----------0----------|------------------|-----------------0-|
------------------|----1-1-3------------|------------------|-------------------|
------------------|--2------------------|------------------|-------------------|
------------------|---------------------|------------------|-------------------|
------------------|---------------------|------------------|-------------------|
------------------|---------------------|------------------|-------------------|

                                                                      
------------------------|------------------|--------0----------------|
--3-1-----1-------------|------------------|----1-3-----3---1--0---1-|
------2-0----2----------|------------------|-------------------------|
------------------------|------------------|-------------------------|
------------------------|------------------|-------------------------|
------------------------|------------------|-------------------------|

                                                                              
-------0------------|------------------|------------------|------------------|
----3---------------|------------------|------------------|------------------|
--------------------|------------------|------------------|------------------|

Продолжаем грести бабос на ботах в Telegram.
Только в этот раз есть вариант автоматизировать это дело, привлекая рефералов. Вы можете заработать если »

--------------------|------------------|------------------|------------------| --------------------|------------------|------------------|------------------| --------------------|------------------|------------------|------------------| ------------------|------------------|------------------|------------------| ------------------|------------------|------------------|------------------| ------------------|------------------|------------------|------------------| ------------------|------------------|------------------|------------------| ------------------|------------------|------------------|------------------| ------------------|------------------|------------------|------------------| ------------------|------------------|------------------|------------------| ------------------|------------------|------------------|------------------| ------------------|------------------|------------------|------------------| ------------------|------------------|------------------|------------------| ------------------|------------------|------------------|------------------| ------------------|------------------|------------------|------------------| ------------------|------------------|------------------|------------------| ------------------|------------------|------------------|------------------| ------------------|------------------|------------------|------------------| ------------------|------------------|------------------|------------------| ------------------|------------------|------------------|------------------| ------------------|------------------|------------------|------------------| ------------------|------------------|----------0----------|------------------| ------------------|------------------|----1-1-3------------|------------------| ------------------|------------------|--2------------------|------------------| ------------------|------------------|---------------------|------------------| ------------------|------------------|---------------------|------------------| ------------------|------------------|---------------------|------------------| -----------------0-|------------------------|------------------| -------------------|--3-1-----1-------------|------------------| -------------------|------2-0----2----------|------------------| -------------------|------------------------|------------------| -------------------|------------------------|------------------| -------------------|------------------------|------------------| --------0----------------|-------0------------|------------------| ----1-3-----3---1--0---1-|----3---------------|------------------| -------------------------|--------------------|------------------| -------------------------|--------------------|------------------| -------------------------|--------------------|------------------| -------------------------|--------------------|------------------| ----------0----------|------------------|-----------------0-| ----1-1-3------------|------------------|-------------------| --2------------------|------------------|-------------------| ---------------------|------------------|-------------------| ---------------------|------------------|-------------------| ---------------------|------------------|-------------------| ------------------------|------------------|--------0----------------| --3-1-----1-------------|------------------|----1-3-----3---1--0---1-| ------2-0----2----------|------------------|-------------------------| ------------------------|------------------|-------------------------| ------------------------|------------------|-------------------------| ------------------------|------------------|-------------------------| -------0------------|------------------|----------0----------| ----3---------------|------------------|----1-1-3------------| --------------------|------------------|--2------------------| --------------------|------------------|---------------------| --------------------|------------------|---------------------| --------------------|------------------|---------------------| ------------------|-----------------0-|------------------------| ------------------|-------------------|--3-1-----1-------------| ------------------|-------------------|------2-0----2----------| ------------------|-------------------|------------------------| ------------------|-------------------|------------------------| ------------------|-------------------|------------------------| ------------------|--------0----------------|-------0------------| ------------------|----1-3-----3---1--0---1-|----3---------------| ------------------|-------------------------|--------------------| ------------------|-------------------------|--------------------| ------------------|-------------------------|--------------------| ------------------|-------------------------|--------------------| ------------------|----------0----------|------------------|-----------------0-| ------------------|----1-1-3------------|------------------|-------------------| ------------------|--2------------------|------------------|-------------------| ------------------|---------------------|------------------|-------------------| ------------------|---------------------|------------------|-------------------| ------------------|---------------------|------------------|-------------------| ------------------------|------------------|--------0----------------| --3-1-----1-------------|------------------|----1-3-----3---1--0---1-| ------2-0----2----------|------------------|-------------------------| ------------------------|------------------|-------------------------| ------------------------|------------------|-------------------------| ------------------------|------------------|-------------------------| -------0------------|------------------------|------------------| ----3---------------|----------1-------------|------------------| --------------------|------0------2----------|------------------| --------------------|--0-2---2---------------|------------------| --------------------|------------------------|------------------| --------------------|------------------------|------------------| -----------------------0-|-----------------------|-----------------------| ----1-3-1-3----------3---|--1--0--0----------0-1-|--------1--------------| --2----------------------|-----------------------|--2--0-----0--2--------| -------------------------|-----------------------|-----------------------| -------------------------|-----------------------|-----------------------| -------------------------|-----------------------|-----------------------| -------------------|-----------------------|--------------------| -------------------|------0----------------|--------------------| -------------------|--0-2---2-0------------|--------------------| -----------------2-|-----------------------|----2--0------------| -------------------|-----------------------|--------------------| -------------------|-----------------------|--------------------| ------------------------|------------------|-----------------------0-| ----------1-------------|------------------|----1-3-1-3----------3---| ------0------2----------|------------------|--2----------------------| --0-2---2---------------|------------------|-------------------------| ------------------------|------------------|-------------------------| ------------------------|------------------|-------------------------| -----------------------|-----------------------|-------------------| --1--0--0----------0-1-|--------1--------------|-------------------| -----------------------|--2--0-----0--2--------|-------------------| -----------------------|-----------------------|-----------------2-| -----------------------|-----------------------|-------------------| -----------------------|-----------------------|-------------------| -----------------------|--------------------|--------------|| ------0----------------|--------------------|--------------|| --0-2---2-0------------|--------------------|--------------|| -----------------------|----2--0------------|--------------|| -----------------------|--------------------|--------------|| -----------------------|--------------------|--------------||








О сайтеАккордыХит-парадПоискУроки ФорумыИщу песню
ПрограммыСвежачок-сПодпискаСтатьи
Яндекс.Метрика