Табулатура Мертвые дельфины | На Моей Луне гитара табулатуры уроки тексты песен Мертвые дельфины текст lyrics песня аккорды песни ноты нота электрогитара струна  
   А Б В Г Д Е Ж З И К Л М Н О П Р С Т У Ф Х Ч Ш Ы Э Ю Я       Разные песни
1-9 A B C D E F G H I J K L M N O P Q R S T U V W Y Z      Все исполнители

    



группа Мертвые дельфины, Табулатура песни На Моей Луне

Группа: Мертвые дельфины - другие аккорды (13),   о группе (6 статей),   диски (1),   фотографии (7)
Табулатура песни: На Моей Луне
Просмотров: 3913
Подобрал: Arky Bayderin (Arky2003@mail.ru)




    
Во Серёга реально подобрал

Куплет:
 
    Dm(V)        C(III)      Hb       Dm(V)          Gm       
 1.------------------------------------------------------------
 2.-------6------------5--------3----------6----------------3--
 3.-----7---7---7------5--------3--------7---7------------3----
 4.---7-------7------5---5----3---3/---7-------7--------5------
 5.-5--------------3--------1--------5----------------5--------
 6.----------------------------------------------5p3-----------
    Dm(V)         C(III)      Hb      F        Gm(вниз с 6-й)    
 1.-------0-------------3---------1-------1----3------------------
 2.-------6-------------5---5-----3-------1----3------------------
 3.-----7---7---7-----5---5-----3---3---2---2/-3------------------
 4.---7-------7-----5---------3-------3--------5------------------
 5.-5-------------3----------------------------5------------------
 6.--------------------------------------------3------------------
 
    Dm(V)          C(III)                                                 
1. Снег сможет меня согреть,
              Hb          
    Ты помоги ему
          Dm(V)’   Gm                 
    Душу мою отпеть здесь некому будет.
     Dm(V)           C(III)                        
    Сном белым к тебе приду,
                 Hb  
    В мысли твои войду
      F’       Gm    
    Там для себя приют найду.
Припев(1):
    Dm        C         Hb        F
 1.-1----1----0----0----1----1----1----1-----------
 2.-3----3----1----1----3----3----1----1-----------
 3.---2----2----0----0----3----3----2----2---------
 
  
    Dm        C         Hb        Gm(вниз с 6-й)
 1.-1----1----0----0----1----1----3-------------
 2.-3----3----1----1----3----3----3-------------
 3.---2----2----0----0----3----3--3-------------
 4.-------------------------------5-------------
 5.-------------------------------5-------------
 6 -------------------------------3-------------
Припев:
     Dm    
 На моей луне
     C
 Я всегда один,
     Hb
 Разведу костер,

Продолжаем грести бабос на ботах в Telegram.
Только в этот раз есть вариант автоматизировать это дело, привлекая рефералов. Вы можете заработать если »

F Посижу в тени. Dm На моей луне C Пропадаю я. Hb Сам себе король, Gm Сам себе судья. 2. Свет, слабым лучом в окно Сколько ему дано Мне уже все равно, Но голос надежды Вновь машет своим крылом, Падая вниз дождем И я опять вхожу в твой дом. Припев(2): Dm C Hb F 1.-1----1----0----0----1----1----1----1----------- 2.-3----3----1----1----3----3----1----1----------- 3.---2----2----0----0----3----3----2----2--------- Dm C Hb Gm 1.-1----1----0----0----1----1----3----3----------- 2.-3----3----1----1----3----3----3----3----------- 3.---2----2----0----0----3----3----3----3--------- Припев(1): 3. Блеск этих волшебных глаз Околдовал меня Будто бы в первый раз я их понимаю Для последней части 3-его куплета перебор такой: Dm C 1.-1----1----1----1----0----0----0----0----------- 2.-3----3----3----3----1----1----1----1----------- 3.---2----2----2----2----0----0----0----0--------- Hb Gm(вниз с 6-й) 1.-1----1----1----1----3------------- 2.-3----3----3----3----3------------- 3.---3----3----3----3--3------------- 4.---------------------5------------- 5.---------------------5------------- 6.---------------------3------------- Смерть, я обниму рукой И только с ней одной Я поделюсь своей мечтой. Припев(2): Припев(1) для: На моей луне Я всегда один Разведу костер, посижу в тени Далее без гитары: На моей луне-е-е Я сам себе коро-о-ль… ЗЫ Еще раз прошу внимательно слушать песню – где начинать играть и где заканчивать, и… если не лень, «отзовитесь»








О сайтеАккордыХит-парадПоискУроки ФорумыИщу песню
ПрограммыСвежачок-сПодпискаСтатьи
Яндекс.Метрика