Табулатура Metallica | So What  (2) гитара табулатуры уроки тексты песен Metallica текст lyrics песня аккорды песни ноты нота электрогитара струна  
   А Б В Г Д Е Ж З И К Л М Н О П Р С Т У Ф Х Ч Ш Ы Э Ю Я       Разные песни
1-9 A B C D E F G H I J K L M N O P Q R S T U V W Y Z      Все исполнители in english

    



группа Metallica, Табулатура песни So What (2)

Продолжаем грести бабос на ботах в Telegram.
Только в этот раз есть вариант автоматизировать это дело, привлекая рефералов. Вы можете заработать если »

Группа: Metallica - другие аккорды (225),   о группе (32 статей),   диски (11),   фотографии (49)
Табулатура песни: So What (2)
Просмотров: 1880
Подобрал: Denom (richard101@yandex.ru)




    

1) So fucking What!!!!!!!!!!!
D------------------------------------------------------
A--5//7-7-7-7----5//7-7-7-7----5//7---5//7---5//7-7-7-7
E--3//5-5-5-5--0-3//5-5-5-5--0-3//5-0-3//5-0-3//5-5-5-5

2)
D--7--7-7-7-7-7-7-7
A--5--5-5-5-5-5-5-5
E------------------

3a) James
G-----------5-----------------
D--5--------3-----------------
A--3----------------5//7-7-7-7
E-------------------3//5-5-5-5

3b)
e-----------------------------
B-------------6---------------
G------5----5---5-------------
D--5-5---5--3-----3-----------
A--3----------------5//7-7-7-7
E-------------------3//5-5-5-5

solo 
  16 раз   
   ^            ^     ^                              ^V
e---------------------------------------------------------------------
B--15-------15----15----15-----12-------------------------------------
G--14-------14-14----14-----14----14p12h14p12----12-12--12-14-12-14-12
D---------------------------------------------14-12-12--12-14-12-14-12
A---------------------------------------------------------------------

Продолжаем грести бабос на ботах в Telegram.
Только в этот раз есть вариант автоматизировать это дело, привлекая рефералов. Вы можете заработать если »

E--------------------------------------------------------------------- 1:51   8X    ^ e-------------------------------------------- B--15-----12h15p12----12--------------------- G--14--14----------14----14p12----some------- D------------------------------14-thing-14p12 A-------------------------------------------- E-------------------------------------------- 2:01    ^       e------------------- B------------------- G--7-------7h9p7---- D----9-7-9-------7-9 A------------------- E------------------- 2:06       ^V          ^V e-----------------------15 B-----11----------11-13--- G--12----12-10-12--------- D------------------------- A------------------------- E------------------------- 2:12 & 2:17

искать в аптеке
список лекарств






О сайтеАккордыХит-парадПоискУроки ФорумыИщу песню
ПрограммыСвежачок-сПодпискаСтатьи
Яндекс.Метрика