Табулатура Чиж и Ко | Полонез гитара табулатуры уроки тексты песен Чиж и Ко текст lyrics песня аккорды песни ноты нота электрогитара струна  
   А Б В Г Д Е Ж З И К Л М Н О П Р С Т У Ф Х Ч Ш Ы Э Ю Я       Разные песни
1-9 A B C D E F G H I J K L M N O P Q R S T U V W Y Z      Все исполнители in english

    



группа Чиж и Ко, Табулатура песни Полонез

Группа: Чиж и Ко - другие аккорды (161),   о группе (1 статей),   диски (7),   фотографии (8)
Табулатура песни: Полонез
Просмотров: 1764
Подобрал: погранец ( bladeless@land.ru)




    
  C    Em7   C	        F     A     Dm	  F     G
|-------------0--0-----0--1--1--0--0-----1---------1-----3-
|-1--1--3--3---1--1---3----1-----2----3---3-------1-----3--
|--0-----0------0--0--------2-----2----2---2-2---2-----4---
|---2-----2---------------------------0-3---3--------------
|-3-----2-----3-----------3-----0--------------------------
|-----------------------------------------------1-----3----
 C
-0--0-----0--3-1-------------|

Продолжаем грести бабос на ботах в Telegram.
Только в этот раз есть вариант автоматизировать это дело, привлекая рефералов. Вы можете заработать если »

--1--1---3------3-1-0-1-2-3--| ---0--0--------------0-0-0-0-| -------------0---------------| -3---------------------------| --------------------3--------|








О сайтеАккордыХит-парадПоискУроки ФорумыИщу песню
ПрограммыСвежачок-сПодпискаСтатьи
Яндекс.Метрика