Табулатура Metallica | Frantic  (2) гитара табулатуры уроки тексты песен Metallica текст lyrics песня аккорды песни ноты нота электрогитара струна  
   А Б В Г Д Е Ж З И К Л М Н О П Р С Т У Ф Х Ч Ш Ы Э Ю Я       Разные песни
1-9 A B C D E F G H I J K L M N O P Q R S T U V W Y Z      Все исполнители in english

    



группа Metallica, Табулатура песни Frantic (2)

Группа: Metallica - другие аккорды (225),   о группе (32 статей),   диски (11),   фотографии (49)
Табулатура песни: Frantic (2)
Просмотров: 2057
Прислал: xAL (xal@akkords.ru)




    
"Frantic"
by Metallica
written by Hetfield/Ulrich/Hammett/Rock
available on "St. Anger" album

tabbed by Tero Saikkonen from Finland!!!
tsslayer@luukku.com

Guitars Dropped-C tuning (Strings on D) 
6=C 3=F
5=G 2=A
4=C 1=D

Intro
|----------------------------| -8-
|----------------------------|  T
|----------------------------|  I
|----------------------------|  M
|----------------------------|  E
|-0-0-0-0-0-0-0-0-0----------|  S
|
| GTR2
|----------------------------| -8-
|----------------------------|  T
|----------------------------|  I
|----------------------------|  M
|--------------------0-------|  E
|--------------------0-------|  S

 GTR I
|---------------------------------|
|---------------------------------|
|---------------------------------|
|---------------------------------|
|---------------------------------| -16-
|-6---3---0-0-0-0-5---0-0-0-0-0-0-|  T
|                                 |  I
|GTR II                           |  M
|---------------------------------|  E
|---------------------------------|  S
|---------------------------------|
|---------------------------------|
|---------------------------------|
|-18--15--0-0-0-0-17--0-0-0-0-0-0-|

BAND TACET (Silence)
/half-acoustic/
|--------------------------------------------------------
|--------------------------------------------------------
|--------------------------------------------------------
|--------------------------------------------------------
|--------------------------------------------------------
|-18--15--0--17----17----17--18---15--0--17----17----17--

------------------------------------------------------|
------------------------------------------------------|
------------------------------------------------------|
------------------------------------------------------|
------------------------------------------------------|
-18--15--0--17----17----17--18--15--0--0--0--0--0--0--|

BAND IN
MAIN RIFF
/distortion/ (GTRs I & II plays that riff, GTR III plays one 
octave lower same riff)
|--------------------------------------------------------
|--------------------------------------------------------
|--------------------------------------------------------
|--------------------------------------------------------
|--------------------------------------------------------
|-18--15--0--17----17----17--18---15--0--17----17----17--

------------------------------------------------------|  -4-
------------------------------------------------------|   T
------------------------------------------------------|   I
------------------------------------------------------|   M
------------------------------------------------------|   E
-18--15--0--17----17----17--18--15--0--0--0--0--0--0--|   S

VERSERIFF
("If i could have my wasted days back...")
|-------------------------| -8-
|-------------------------|  T
|-------------------------|  I
|-------------------------|  M
|-6-3--0--0--0--0--0--0--|  E
|-6-3--0--0--0--0--0--0--|  S

VERSERIFF 2
|-------------------------------------------------| -2-
|-------------------------------------------------|  T
|-------------------------------------------------|  I
|-------------------------------------------------|  M
|-2*-3--3--3--2--2--2--2--3--3--3--3--2--2--2--2--|  E
|-2*-3--3--3--2--2--2--2--3--3--3--3--2--2--2--2--|  S
  (* Play only first time, second time play G=3)

VERSE
|-------------------------| -4-
|-------------------------|  T
|-------------------------|  I
|-------------------------|  M
|-6-3--0--0--0--0--0--0--|  E
|-6-3--0--0--0--0--0--0--|  S

/half-acoustic/
|--------------------------------------------------------|
|--------------------------------------------------------|
|--------------------------------------------------------|
|--------------------------------------------------------|
|--------------------------------------------------------|
|-18--15--0--17----17----17--18---15--0--17----17----17--|
("You live it of lie it...!!")

/distortion/
GTR I
|--------------------------------------------------------|
|--------------------------------------------------------|
|--------------------------------------------------------|
|--------------------------------------------------------|
|--------------------------------------------------------|
|-18--15--0--17----17----17--18---15--0--17----17----17--|
|                                                        |
|GTR II                                                  |
|--------------------------------------------------------|
|--------------------------------------------------------|
|--------------------------------------------------------|
|--------------------------------------------------------|
|-6---3---0--5-----5-----5---6----3---0--5-----5-----5---|
|-6---3---0--5-----5-----5---6----3---0--5-----5-----5---|
("You live it of lie it..." (Whispering)

/half-acoustic/
|--------------------------------------------------------|
|--------------------------------------------------------|
|--------------------------------------------------------|
|--------------------------------------------------------|
|--------------------------------------------------------|
|-18--15--0--17----17----17--18---15--0--17----17----17--|
("My lifestyle determines my deathstyle...")

/distortion/
|----------------------------| -4-
|----------------------------|  T
|----------------------------|  I
|----------------------------|  M
|--------------------0-------|  E
|-0-0-0-0-0-0-0-0-0--0-------|  S

/acoustic/               ("Keep searching....")
 GTR I
|-------------------------------------------------|
|-------------------------------------------------|
|-------------------------------------------------|
|-------------------------------------------------|
|-11---8---10-------------11---8---10-------------|
|-------------------------------------------------|   -4-
|                                                 |
|GTR II                                           |    T
|-------------------------------------------------|
|-!!! PLAY THIS ONLY 2ND AND 4TH TIME !!!---------|    I
|-------------------------------------------------|
|-------------------------------------------------|    M
|-------------------------------------------------|
|-12---10---9---5--------12---10---9---5--------|    E
|                                                 |
|GTR III Plays on background                      |    S
| G                                               |
|-------------------------------------------------|
|-------0----(3)----0-----------0----(3)----0-----|
|----0-----0-----0-----0-----0-----0-----0-----0--|
|-0-----------------------0-----------------------|
|-------------------------------------------------|
|-------------------------------------------------|

/distortion/
   _________________________________________________
 _|1, 2, 3 times             |4th time              |_
| |--------------------------|----------------------| |
|o|--------------------------|----------------------|o|
| |--------------------------|----------------------| |
| |--------------------------|----------------------| |
|o|-----------------0--0--0--|----------------------|o|
|_|-18----15--17----0--0--0--|-18----15--17----175-|_|
      ////  //  ///              ////  //

MAINRIFF
|--------------------------------------------------------
|--------------------------------------------------------
|--------------------------------------------------------
|--------------------------------------------------------
|--------------------------------------------------------
|-18--15--0--17----17----17--18---15--0--17----17----17--

------------------------------------------------------|  -2-
------------------------------------------------------|   T
------------------------------------------------------|   I
------------------------------------------------------|   M
------------------------------------0--0--0--0--0--0--|   E
-18--15--0--17----17----17--18--15--0--0--0--0--0--0--|   S

THEN PLAY: 
       VERSERIFF   x 8
       VERSERIFF2  x 2
       VERSERIFF   x 4

THEN:
/half-acoustic/
|--------------------------------------------------------|
|--------------------------------------------------------|
Узнай ВСЕ о своем друге в ВК или FB
|--------------------------------------------------------| |--------------------------------------------------------| |--------------------------------------------------------| |-18--15--0--17----17----17--18---15--0--17----17----17--| ("You live it of lie it...!!") /distortion/ GTR I |--------------------------------------------------------| |--------------------------------------------------------| |--------------------------------------------------------| |--------------------------------------------------------| |--------------------------------------------------------| |-18--15--0--17----17----17--18---15--0--17----17----17--| | | |GTR II | |--------------------------------------------------------| |--------------------------------------------------------| |--------------------------------------------------------| |--------------------------------------------------------| |-6---3---0--5-----5-----5---6----3---0--5-----5-----5---| |-6---3---0--5-----5-----5---6----3---0--5-----5-----5---| ("You live it of lie it..." (Whispering) /half-acoustic/ |--------------------------------------------------------| |--------------------------------------------------------| |--------------------------------------------------------| |--------------------------------------------------------| |--------------------------------------------------------| |-18--15--0--17----17----17--18---15--0--17----17----17--| ("My lifestyle determines my deathstyle...") /distortion/ |----------------------------| -4- |----------------------------| T |----------------------------| I |----------------------------| M |--------------------0-------| E |-0-0-0-0-0-0-0-0-0--0-------| S /acoustic/ ("Keep searching....") GTR I |-------------------------------------------------| |-------------------------------------------------| |-------------------------------------------------| |-------------------------------------------------| |-11---8---10-------------11---8---10-------------| |-------------------------------------------------| -4- | | |GTR II | T |-------------------------------------------------| |-!!! PLAY THIS ONLY 2ND AND 4TH TIME !!!---------| I |-------------------------------------------------| |-------------------------------------------------| M |-------------------------------------------------| |-12---10---9---5--------12---10---9---5--------| E | | |GTR III Plays on background | S | G | |-------------------------------------------------| |-------0----(3)----0-----------0----(3)----0-----| |----0-----0-----0-----0-----0-----0-----0-----0--| |-0-----------------------0-----------------------| |-------------------------------------------------| |-------------------------------------------------| /distortion/ _________________________________________________ _|1, 2, 3 times |4th time |_ | |--------------------------|----------------------| | |o|--------------------------|----------------------|o| | |--------------------------|----------------------| | | |--------------------------|----------------------| | |o|-----------------0--0--0--|----------------------|o| |_|-18----15--17----0--0--0--|-18----15--17----175-|_| //// // /// //// // GTR I |---------------------------------| |---------------------------------| |---------------------------------| |---------------------------------| |---------------------------------| -12- |-6---3---0-0-0-0-5---0-0-0-0-0-0-| T | | I |GTR II | M |---------------------------------| E |---------------------------------| S |---------------------------------| |---------------------------------| |---------------------------------| |-18--15--0-0-0-0-17--0-0-0-0-0-0-| GTR I ("Do i have the strength, to know how i_ll go...") |---------------------------------| |---------------------------------| |---------------------------------| |---------------------------------| |---------------------------------| -12- |-6---3---0-0-0-0-5---0-0-0-0-0-0-| T | | I |GTR II | M |---------------------------------| E |---------------------------------| S |---------------------------------| |-18--15--0-0-0-0-17--0-0-0-0-0-0-| |---------------------------------| |---------------------------------| GTR I |---------------------------------| |---------------------------------| |---------------------------------| |---------------------------------| |---------------------0-----------| -4- |-0-0-0-0-0-0-0-0-0---0-----------| T | | I |GTR II | M |---------------------------------| E |---------------------------------| S |---------------------------------| |---------------------------------| |---------------------------------| |-18--15--0-0-0-0-17--0-0-0-0-0-0-| ____________________________ _ |1,2,3 times |4th time |_ | |---------------------------------|-------------| | |o|---------------------------------|-------------|o| | |---------------------------------|-------------| | | |---------------------------------|-------------| | |o|---------------------0-----------|-3--3--3--3--|o| |_|-0-0-0-0-0-0-0-0-0---0-----------|-3--3--3--3--|_| /acoustic/ ("Keep searching....") GTR I |-------------------------------------------------| |-------------------------------------------------| |-------------------------------------------------| |-------------------------------------------------| |-11---8---10-------------11---8---10-------------| |-------------------------------------------------| -4- | | |GTR II | T |-------------------------------------------------| |-!!! PLAY THIS ONLY 2ND AND 4TH TIME !!!---------| I |-------------------------------------------------| |-------------------------------------------------| M |-------------------------------------------------| |-12---10---9---5--------12---10---9---5--------| E | | |GTR III Plays on background | S | G | |-------------------------------------------------| |-------0----(3)----0-----------0----(3)----0-----| |----0-----0-----0-----0-----0-----0-----0-----0--| |-0-----------------------0-----------------------| |-------------------------------------------------| |-------------------------------------------------| /distortion/ _________________________________________________ _|1, 2, 3 times |4th time |_ | |--------------------------|----------------------| | |o|--------------------------|----------------------|o| | |--------------------------|----------------------| | | |--------------------------|----------------------| | |o|-----------------0--0--0--|----------------------|o| |_|-18----15--17----0--0--0--|-18----15--17----175-|_| //// // /// //// // |-----------------------------------------| -2- |-----------------------------------------| T |-----------------------------------------| I |-----------------------------------------| M |-0--0----------------0--0----------------| E |-0--0----------------0--0----------------| S OUTRORIFF |--------------------------------------------------------------- |--------------------------------------------------------------- |--------------------------------------------------------------- |--------------------------------------------------------------- |--------------------------------------------------------------- |-10---12-12--10-12-10-12---12---10---12-12--12-12-10-12---12--- ----------------------------------------------------------------| -3- ----------------------------------------------------------------| T ----------------------------------------------------------------| I ----------------------------------------------------------------| M -----------------------------------------------------10---------| E -10---12-12--10-12-10-12---12---10---12-12--12-10-12----12-10---| S |-------| |-------| TABBED BY |-------| T E R O S A I K K O N E N |-------| THE |-12---| END contact me to: |-12---| t s s l a y e r @ l u u k k u . c o m

fretplay.com
найти лекарство
список лекарств






О сайтеАккордыХит-парадПоискУроки ФорумыИщу песню
ПрограммыСвежачок-сПодпискаСтатьи
Яндекс.Метрика