Аккорды Ария | Пытка тишиной гитара табулатуры уроки тексты песен Ария текст lyrics песня аккорды песни ноты нота электрогитара струна  
   А Б В Г Д Е Ж З И К Л М Н О П Р С Т У Ф Х Ч Ш Ы Э Ю Я       Разные песни
1-9 A B C D E F G H I J K L M N O P Q R S T U V W Y Z      Все исполнители in english

    



группа Ария, Аккорды песни Пытка тишиной

Продолжаем грести бабос на ботах в Telegram.
Только в этот раз есть вариант автоматизировать это дело, привлекая рефералов. Вы можете заработать если »

Группа: Ария - другие аккорды (629),   о группе (7 статей),   диски (18),   фотографии (92)
Аккорды песни: Пытка тишиной
Просмотров: 5532
Подобрал: Макс Сушкин aka TheX (2:5020/1619.404@FidoNet)




    
Ария - Пытка тишиной


Подобрал: Макс Сушкин aka TheXaM (2:5020/1619.404@FidoNet)


h - hammer on

p - pull off

s - slide

let ring - оставить струну звучащей (не заглушать)

/ - pitch bend to

r - return (возврат)


вступление:


e|-----------------------------------------|

B|-----------------------------------------|

G|-----------------------------------------|

D|------7----5-------5h7------7----5-------|

A|------7----7----5h7---------7----7-------|

E|-5---------------------5-----------------|

   ^let ring             ^let ring


Соло 1 (во вступлении): Distorted Guitar


e|-----------------------------------------|

B|-----------------------------------------|

G|-7/8r7--7--5----------------------5s0----|

D|--------------7s5-----5--7--5--7---------|

A|-----------------------------------------|

E|-----------------------------------------|


Соло 2: Distorted Guitar

e|-----------------------|

B|-----------------------|

G|-9s14-14-14---s0-------|

D|-----------------------|

A|-----------------------|

E|-----------------------|

           ^^ Vibrato


Соло 3: Distorted Guitar

e|-----------------------------------------|

B|----------------5--5--5------------------|

Продолжаем грести бабос на ботах в Telegram.
Только в этот раз есть вариант автоматизировать это дело, привлекая рефералов. Вы можете заработать если »

G|-------------5-----------7--5------------| D|-5--7--5--7--------------------7---------| A|-----------------------------------------| E|-----------------------------------------| ^^^^^^^ небольшой pitch bend e|-----------------------------------------| B|----------------5--5--5------------------| G|-------------5-----------7--5------------| D|-5--7--5--7--------------------8---------| A|-----------------------------------------| E|-----------------------------------------| ^^^^^^^ небольшой pitch bend Соло 4: Distorted Guitar e|----------------------------------------------------------------| B|-12/13--12/13--12/13--12/13--13--12--10--12/13r12--13--12--10s4-| G|----------------------------------------------------------------| D|----------------------------------------------------------------| A|----------------------------------------------------------------| E|----------------------------------------------------------------| e|----------------------------------------------------------------| B|-4--4--4--4--3--1--------4--3--1--------------------------------| G|-------------------2--------------2-----------------------------| D|----------------------------------------------------------------| A|----------------------------------------------------------------| E|----------------------------------------------------------------|

найти лекарство
список лекарств

Фото на футболку, печать на футболку срочно

Интернет-магазин футболок. Производство футболок, бейсболок, толстовок и др

multyprint.ru








О сайтеАккордыХит-парадПоискУроки ФорумыИщу песню
ПрограммыСвежачок-сПодпискаСтатьи
Яндекс.Метрика