Табулатура Mark Knopfler | I`m The Fool гитара табулатуры уроки тексты песен Mark Knopfler текст lyrics песня аккорды песни ноты нота электрогитара струна  
   А Б В Г Д Е Ж З И К Л М Н О П Р С Т У Ф Х Ч Ш Ы Э Ю Я       Разные песни
1-9 A B C D E F G H I J K L M N O P Q R S T U V W Y Z      Все исполнители

    



группа Mark Knopfler, Табулатура песни I`m The Fool

Группа: Mark Knopfler - другие аккорды (43),   об исполнителе (1 статей),   диски (11),   фотографии (8)
Табулатура песни: I`m The Fool
Просмотров: 758
Прислал: Squire (nokeltaeh@yahoo.ie)




    
Artist: Mark Knopfler
Album: Golden Heart
Title: I'm The Fool
Transcribed by: Gцkay Ersoy
E-mail: gokay96@hotmail.com
Please send your comments and corrections; 
1:39
-----------------------------------------------------
--------5--5-6--5h6p5---5-6--------------------------
----5-7---------------7-------7-7-7--5-7-/9----------
--5---------------------------5-5-5------------------
-----------------------------------------------------
-----------------------------------------------------
1:48
-----------------------------------------------------
-----------------------------------------------------
---5-7-9--10--9h10p9-7-9-10--9-9-9--9-5--------------
-5--------------------------10--10-------------------
-----------------------------------------------------
-----------------------------------------------------

Продолжаем грести бабос на ботах в Telegram.
Только в этот раз есть вариант автоматизировать это дело, привлекая рефералов. Вы можете заработать если »

1:59 ----------------------------------------------------- ---------------8-----------8------------------------- ---10-10----10---10------9---9--7h9p7-----------9---- -7--------7-----------10----10--------10--10h12------ ----------------------------------------------------- ----------------------------------------------------- 2:08 ----------------------------------------------------- -----5-6--5h6p5---5h6-------------------------------- ---5------------7-5----/7-5-4-5-7-5------------------ -5--------------------------5------------------------ ----------------------------------------------------- ----------------------------------------------------- h=hammer on p=pull off /=slide up or down 2:08=time from my cd








О сайтеАккордыХит-парадПоискУроки ФорумыИщу песню
ПрограммыСвежачок-сПодпискаСтатьи
Яндекс.Метрика