Табулатура Mark Knopfler | Down Day гитара табулатуры уроки тексты песен Mark Knopfler текст lyrics песня аккорды песни ноты нота электрогитара струна  
   А Б В Г Д Е Ж З И К Л М Н О П Р С Т У Ф Х Ч Ш Ы Э Ю Я       Разные песни
1-9 A B C D E F G H I J K L M N O P Q R S T U V W Y Z      Все исполнители

    



группа Mark Knopfler, Табулатура песни Down Day

Группа: Mark Knopfler - другие аккорды (43),   об исполнителе (1 статей),   диски (11),   фотографии (8)
Табулатура песни: Down Day
Просмотров: 732
Прислал: squire (nokeltaeh@yahoo.ie)




    
Artist:Mark Knopfler
Title:Down Day
Album:Metroland
Transcriped by :Gцkay Ersoy
E-mail:gokay96@hotmail.com
Please send your comments and corrections;
----------------------------------------------------------------
------------------------------------------------3---------------
-0--------0-------0-------0-------0-----------4-----------------
-2------4-------2-------4-------2------4----2-------------------
-3----5-------3-------5-------3------5----0---------------------
-0--0-------0-------0-------0------0----------------------------
--------3-------------------------------------------------------
--------5------------7------------------------------------------
-0---------guitar------7b-7---------7---------------------------
-2---4-------------------------7/-9---9-7-----------------------
-3---5----------------------------------------------------------
----------------------------------------------------------------
----------------------------------------------------------------
----------------------------------------------------------------
--------------------------4--------4----------------------------
--7b9-7-5-7b9r7-5-------5---5----5---5--------------------------
----------------------------------------------------------------
----------------------3--------3--------2-----------------------

Продолжаем грести бабос на ботах в Telegram.
Только в этот раз есть вариант автоматизировать это дело, привлекая рефералов. Вы можете заработать если »

---------------------------------------------------------------- ------------------5--7--7b8--/10-8-7---3-3h5------------------- --(drums enter)--------------------------------4-4/7-5---------- ---------------------------------------------------------------- ---------------------------------------------------------------- ---------------------------------------------------------------- ---------------------------------------------------------------- --5--7--10b11r10b12-10-8-7---3-5-5----------------------------- -------------------------------------4-5-5--2-4-4--0-2-2----0-0- ------------------------------------------------------------5-5- ------------------------------------------------------------5-5- ------------------------------------------------------------3-3- ---------------------------------------------------------------- -------------------------------------1-------------------------- -0--------0--------0--------0------2----------0----------------- -2------4--------2--------4------0----------2------------------- -3----5--------3--------5------0----------3--------------------- -0--0--------0--------0-----------------0----------------------- /=slide up or down b:bend r:release bend








О сайтеАккордыХит-парадПоискУроки ФорумыИщу песню
ПрограммыСвежачок-сПодпискаСтатьи
Яндекс.Метрика